Log in

One click and you are in

Login with Facebook Login with Google

Why sign up and log in

Guitar Tabs Explorer
Manic Drive bass tabs for Blue

Bass tabs

-------------------------------------------------------------------------------
			   Blue - Manic Drive
-------------------------------------------------------------------------------

This was a hard one...
Tuning: Standard


Intro
G|---------------------------------------------------|
D|---------------------------------------------------| x2
A|---------------------------------------------------|
E|--66-x-66-x-6--00--888-x-888-x-88-x-8--00--x-6666--|


Verse
G|------------------------------|
D|------------------------------| x2
A|----------4~------------------|
E|--6~--------------1~------4~--|

G|-------------------------------------------------------------------|
D|-------------------------------------------------------------------|
A|---------------44-x-44-x-4-----------------------------------------|
E|--66-x-66-x-6---------------11-x-11-x-1--44-x-44-x-4--6~----9~-8~--|


Chorus
G|------------------------------|
D|------------------------------| x3
A|------------------------------|
E|--66-x-66-x-6--00--44-x-44-x--|

G|---------------------------------------------------|
D|---------------------------------------------------|
A|---------------------------------------------------|
E|--66-x-66-x-6--00--888-x-888-x-88-x-8--00--x-6666--|

G|------------------------|
D|------------------------|
A|------------------------|
E|--66-x-66-x-6--00--888--|

Verse
G|------------------------------|
D|------------------------------| x2
A|----------4~------------------|
E|--6~--------------1~------4~--|

G|-------------------------------------------------------------------|
D|-------------------------------------------------------------------|
A|---------------44-x-44-x-4-----------------------------------------|
E|--66-x-66-x-6---------------11-x-11-x-1--44-x-44-x-4--6~----9~-8~--|


Chorus
G|------------------------------|
D|------------------------------| x3
A|------------------------------|
E|--66-x-66-x-6--00--44-x-44-x--|

G|---------------------------------------------------|
D|---------------------------------------------------| x2
A|---------------------------------------------------|
E|--66-x-66-x-6--00--888-x-888-x-88-x-8--00--x-6666--|


Bridge
G|-----------|
D|-----------| x2
A|-----------|
E|--4-3-4-8--|

G|---------------------------------|
D|---------------------------------| x4 After first time
A|---------------------------------| don’t play first 4 and last time
E|--4-3-4-6-4-6-8-6-8-12-10-12-13--| don’t play last 13.

Chorus
G|------------------------------|
D|------------------------------| x3
A|------------------------------|
E|--66-x-66-x-6--00--44-x-44-x--|

G|---------------------------------------------------|
D|---------------------------------------------------| x2
A|---------------------------------------------------|
E|--66-x-66-x-6--00--888-x-888-x-88-x-8--00--x-6666--|

G|------------------------------|
D|------------------------------| x2
A|------------------------------|
E|--66-x-66-x-6--00--44-x-44-x--|

G|------------------------|
D|------------------------|
A|------------------------|
E|--66-x-66-x-6--00--44-2-|

| / slide up
| \ slide down
| h hammer-on
| p pull-off
| ~ let note ring
| + harmonic
| x Mute note

Almost there ...

Sign in to get your own page with links to favourite songs and more. You are just one click away...

Login with Facebook Login with Google