Log in

One click and you are in

Login with Facebook Login with Google

Why sign up and log in

Guitar Tabs Explorer
Manfred Mann bass tabs for Do wah diddy

Bass tabs

manfred_man-Do_wah_diddy.btab

Basstab by Jan Bjorklund, Finland;
jani_bjorklund@yahoo.se
You are welcome to request for basstabs!
Bienvenidos a pedirme transcripciones para el bajo!
Fingering and positions as suggested by TablEdit.

TablEdited by Jan Bjorklund

Tuning : E A D G 	Time Signature: 4/4

 |    |    |    |    |    |    |    |
|0-----------0-------------------|--------------------------------|
|----------------0-----------0---|--------------------------------|
|--------------------------------|3-------3-----------------------|
|--------------------------------|----------------3---------------|

 |    |    |    |    |    |    |    |
|--------------------------------|--------------------------------|
|--------------------------------|--------------------------------|
|--------------------------------|--------------------------------|
|--------------------------------|--------------------------------|

 |    |    |    |    |    |    |    |
|0-----------0-------------------|--------------------------------|
|----------------0-----------0---|----------------0---0---2---4---|
|--------------------------------|3-------3-----------------------|
|--------------------------------|--------------------------------|

 |    |    |    |    |    |    |    |
|0-----------0-------------------|--------------------------------|
|----------------0-----------0---|----------------0---0---2---4---|
|--------------------------------|3-----------3-------------------|
|--------------------------------|--------------------------------|

 |    |    |    |    |    |    |    |
|0-----------0-------------------|--------------------------------|
|----------------0-----------0---|--------------------------------|
|--------------------------------|3-------3-----------------------|
|--------------------------------|----------------3---------------|

 |    |    |    |    |    |    |    |
|--------------------------------|--------------------------------|
|--------------------------------|--------------------------------|
|--------------------------------|--------------------------------|
|--------------------------------|--------------------------------|

 |    |    |    |    |    |    |    |
|--------0---------------0-------|--------0---0-------------------|
|----------------0---------------|0---0-----------0---------------|
|--------------------------------|--------------------3---2---0---|
|--------------------------------|--------------------------------|

 |    |    |    |    |    |    |    |
|--------------------------------|--------------------------------|
|--------------------------------|--------------------------------|
|--------------------------------|--------------------------------|
|2---3---3---3---2---3---3---3---|2---3---3---3---2---3---3---3---|

 |    |    |    |    |    |    |    |
|--------------------------------|--------------------------------|
|--------------------------------|--------------------------------|
|--------------------------------|--------------------------------|
|2---3---3---3---2---3---3---3---|2---3---3---3---2---3---3---3---|

 |    |    |    |    |    |    |    |
|--------0---0-------------------|--------------------------------|
|----------------2---2---0---0---|------------0-------0---2---4---|
|--------------------------------|3---3---3-----------------------|
|3---3---------------------------|----------------3---------------|

 |    |    |    |    |    |    |    |
|0-------------------------------|--------------------------------|
|--------------------------------|--------------------------------|
|--------------------------------|--------------------------------|
|----3---3---3---2---3---3---3---|2---3---3---3---2---3---3---3---|

 |    |    |    |    |    |    |    |
|--------0---0-------------------|--------------------------------|
|----------------2---2---0---0---|------------0-------------------|
|--------------------------------|3---3---3-----------------------|
|3---3---------------------------|----------------3---------------|

 |    |    |    |    |    |    |    |
|--------------------------------|--------------------------------|
|--------------------------------|--------------------------------|
|--------------------------------|--------------------------------|
|--------------------------------|--------------------------------|

 |    |    |    |    |    |    |    |
|--------0---------------0-------|--------0---0-------------------|
|----------------0---------------|0---0-----------0---------------|
|--------------------------------|--------------------3---2---0---|
|--------------------------------|--------------------------------|

 |    |    |    |    |    |    |    |
|--------------------------------|--------------------------------|
|----------------0-----------0---|--------------------------------|
|--------------------------------|----------------0-------2-------|
|3-----------3-------------------|3-----------3-------------------|

 |    |    |    |    |    |    |    |
|--------------------------------|--------------------------------|
|--------------------------------|--------------------------------|
|----------------2-----------2---|--------------------------------|
|0-----------0-------------------|0-----------0---2-------3-------|

 |    |    |    |    |    |    |    |
|----------------0-----------0---|--------------------------------|
|--------------------------------|----------------0-------2-------|
|3-----------3-------------------|3-----------3-------------------|
|--------------------------------|--------------------------------|

 |    |    |    |    |    |    |    |
|--------------------------------|------------2-------------------|
|0---0---0---0---0---0---0---0---|0---0---4-----------------------|
|--------------------------------|----------------3---3---2---0---|
|--------------------------------|--------------------------------|

 |    |    |    |    |    |    |    |
|--------------------------------|--------------------------------|
|--------------------------------|--------------------------------|
|--------------------------------|--------------------------------|
|3---3---3---3---2---3---3---3---|2---3---3---3---2---3---3---3---|

 |    |    |    |    |    |    |    |
|--------0---0-------------------|--------------------------------|
|----------------2---2---0---0---|------------0-------0---2---4---|
|--------------------------------|3-------3-----------------------|
|3---3---------------------------|----------------3---------------|

 |    |    |    |    |    |    |    |
|0-------------------------------|--------------------------------|
|--------------------------------|--------------------------------|
|--------------------------------|--------------------------------|
|----3---3---3---2---3---3---3---|2---3---3---3---2---3---3---3---|

 |    |    |    |    |    |    |    |
|--------0---0-------------------|--------------------------------|
|----------------2---2---0---0---|------------0-------------------|
|--------------------------------|3---3---3-----------------------|
|3---3---------------------------|----------------3---------------|

 |    |    |    |    |    |    |    |
|--------------------------------|--------------------------------|
|--------------------------------|--------------------------------|
|--------------------------------|--------------------------------|
|--------------------------------|--------------------------------|

 |    |    |    |    |    |    |    |
|--------0---------------0-------|--------0---0-------------------|
|----------------0---------------|0---0-----------0---------------|
|--------------------------------|--------------------3---2---0---|
|--------------------------------|--------------------------------|

 |    |    |    |    |    |    |    |
|--------------------------------|--------------------------------|
|------------------------0-------|------------------------0-------|
|----------------2---------------|----------------2---------------|
|3-----------3-------------------|3-----------3-------------------|

 |    |    |    |    |    |    |    |
|--------------------------------|--------------------------------|
|--------------------------------|----------------------------0---|
|------------------------2-------|------------------------2-------|
|0-----------0---3---------------|0-----------0---3---------------|

 |    |    |    |    |    |    |    |
|------------------------0-------|------------------------0-------|
|----------------2---------------|----------------2---------------|
|3-----------3-------------------|3-----------3-------------------|
|--------------------------------|--------------------------------|

 |    |    |    |    |    |    |    |
|--------------------------------|--------------------------------|
|0---0---------------------------|--------------------------------|
|--------3---3---2---2---0---0---|--------------------------------|
|--------------------------------|3---3---2---2---0---0---2---2---|

 |    |    |    |    |    |    |    |
|--------------------------------|--------------------------------|
|--------------------------------|--------------------0---2---4---|
|--------------------------------|--------------------------------|
|--------------------------------|--------------------------------|

 |    |    |    |    |    |    |    |
|--------------------------------|--------------------------------|
|--------------------------------|------------0-------0---2---4---|
|------------------------0---2---|3---3---3-----------------------|
|2---3---3---3---3---3-----------|----------------3---------------|

 |    |    |    |    |    |    |    |
|0-------------------------------|--------------------------------|
|--------------------------------|--------------------------------|
|--------------------------------|--------------------------------|
|--------------------------------|--------------------0---1---2---|

 |    |    |    |    |    |    |    |
|--------------------------------|--------------------------------|
|--------------------------------|--------0---0-------------------|
|------------------------0---2---|3---3---------------------------|
|2---3---3---3---3---3-----------|----------------3---------------|

 |    |    |    |    |    |    |    |
|--------------------------------|--------------------------------|
|--------------------------------|--------------------------------|
|--------------------------------|--------------------------------|
|--------3---3---3---------------|--------3---3---3---------------|

 |    |    |    |    |    |    |    |
|--------0---------------0-------|--------0---0-------------------|
|----------------0---------------|0---0-----------0---------------|
|--------------------------------|--------------------3---2---0---|
|--------------------------------|--------------------------------|

 |    |    |    |    |    |    |    |
|--------------------------------|--------------------------------|
|0---0---0---0---0---0---0---0---|0---0---------------------------|
|--------------------------------|--------3---3---2---2---0---0---|
|--------------------------------|--------------------------------|

 |    |    |    |    |    |    |    |
|--------------------------------|----------------0---0-----------|
|----------------0---0---2---0---|--------2---2-----------2---0---|
|--------2---2-------------------|3---3---------------------------|
|3---3---------------------------|--------------------------------|

 |    |    |    |    |    |    |    |
|--------------------------------|----------------0---------------|
|----------------0---0---2---0---|--------2---2-------0---2---4---|
|--------2---2-------------------|3---3---------------------------|
|3---3---------------------------|--------------------------------|

 |    |    |    |    |    |    |    |
|0---0---------------------------|--------------------------------|
|--------------------------------|------------0-------------------|
|------------------------0---2---|3---3---3-----------------------|
|--------3---3---3---3-----------|----------------3---------------|

Almost there ...

Sign in to get your own page with links to favourite songs and more. You are just one click away...

Login with Facebook Login with Google