Log in

One click and you are in

Login with Facebook Login with Google

Why sign up and log in

Guitar Tabs Explorer
Måneskin chords for Zitti e buoni ukulele

Guitar chords

Intro:

G|-------------|
C|-------------|
E|0-0----------| x3
A|----7-5h7----|

G|--------|
C|--------|
E|8-8-7-7-|
A|--------|


Bridge:

G|--------------------|
C|--------------------|
E|0-0--7-5-7-8-8-7-7--|  x3
A|---7----------------|

G|--------------------|
C|--------------------|
E|5-5-5-5-5-7-8-8-7-7-|
A|--------------------|


☠☠☠☠☠☠☠☠☠☠☠☠☠☠☠☠☠☠☠☠☠☠☠☠☠☠☠☠☠☠☠☠☠☠☠☠

| h Hammer-on

☠☠☠☠☠☠☠☠☠☠☠☠☠☠☠☠☠☠☠☠☠☠☠☠☠☠☠☠☠☠☠☠☠☠☠☠

ⓘ Måneskin is a rock band formed in 2016 from Italian

Almost there ...

Sign in to get your own page with links to favourite songs and more. You are just one click away...

Login with Facebook Login with Google