Log in

One click and you are in

Login with Facebook Login with Google

Why sign up and log in

Guitar Tabs Explorer
Måneskin bass tabs for Zitti e buoni

Bass tabs

Tuning: Standard (E A D G)


Verse 1:

(pause)

Bass starts at "E buonasera, signore e signori...

G|---------------------------------------------------------------------------|
D|---------------------------------------------------------------------------|x4
A|------7--5-5-7--------7--5-5-7--------7--5-5-7-----------------------------|
E|-0--0------------0--0------------0--0----------8-8-7-7---------------------|

Chorus:

"Sono fuori di testa, ma diverso da loro...

G|---------------------------------------------------------------------------|
D|---------------------------------------------------------------------------|x4
A|------2/7b-------2----------2/7b-------------------------------------------|
E|-0--3-------0--3---3b--0--3------3-3-5-5-----------------------------------|


Verse 2:

"E buonasera, signore e signori...

G|---------------------------------------------------------------------------|
D|---------------------------------------------------------------------------|
A|------------------------7--5-5-7--------7--5-5-7--------7--5-5-7-----------|
E|----------------3\-0--0------------0--0------------0--0----------8-8-7-7---|

G|---------------------------------------------------------------------------|
D|---------------------------------------------------------------------------|x3
A|------7--5-5-7--------7--5-5-7--------7--5-5-7-----------------------------|
E|-0--0------------0--0------------0--0----------8-8-7-7---------------------|


Chorus:

"Sono fuori di testa, ma diverso da loro...

G|---------------------------------------------------------------------------|
D|---------------------------------------------------------------------------|x4
A|------2/7b-------2----------2/7b-------------------------------------------|
E|-0--3-------0--3---3b--0--3------3-3-5-5-----------------------------------|


Bridge:

G|---------------------------------------------------------------------------|
D|-----2-------------------2-------------------2-----------------------------|
A|-------2-0-2-3-3-2-2-------2-0-2-3-3-2-2-------2-0-2-3-3-2-2-0-0-0-0-0-3-3-|
E|-0-0-----------------0-0-----------------0-0-------------------------------|

G|---------------------------------------------------------------------------|
D|---------------------------------------------------------------------------|x4
A|-2-2-----------------------------------------------------------------------|
E|---------------------------------------------------------------------------|


Chorus:

"Ma sono fuori di testa, ma diverso da loro...

G|---------------------------------------------------------------------------|
D|---------------------------------------------------------------------------|x2
A|------2/7b-------2----------2/7b-------------------------------------------|
E|-0--3-------0--3---3b--0--3------3-3-5-5-----------------------------------|


Outro:

G|---------------------------------------------------------------------------|
D|---------------------------------------------------------------------------|x2
A|---------------------------------------------------------------------------|
E|-0-x-0------------0-x-0------------0-x-0------------0-0-0-0----------------|

G|---------------------------------------------------------------------------|
D|---------------------------------------------------------------------------|
A|---------------------------------------------------------------------------|
E|-0-x-0------------0-x-0------------0-x-0------------0-0-0-0-0-0------------|

G|---------------------------------------------------------------------------|
D|---------------------------------------------------------------------------|
A|---------------------------------------------------------------------------|
E|-0-x-0---12\------0-x-0---14\------0-x-0---15\------0-0-0-0--0-0-----------|


************************************

| x  Dead note
| b  Bend
| /  Slide up
| \  Slide down

************************************

Almost there ...

Sign in to get your own page with links to favourite songs and more. You are just one click away...

Login with Facebook Login with Google