Log in

One click and you are in

Login with Facebook Login with Google

Why sign up and log in

Guitar Tabs Explorer
Måneskin bass tabs for Were gonna dance on gasoline

Were Gonna Dance On Gasoline bass tab by Måneskin

Måneskin bass tabs for Were gonna dance on gasoline

Bass tabs

G|------------------------------------------|
D|------------------------------------------|
A|------------------------------------------|
E|--8--8--8--6--6--8--8--6------------------| x7

G|------------------------------------------|
D|------------------------------------------|
A|------------------------------------------|
E|--8--8--8--8--8--8--8--4--4--4------------|

G|------------------------------------------|
D|------------------------------------------|
A|--8--8--8---6--6--------------------------|
E|------------------8--8--8--8--8--8--8--8--|

G|------------------------------------------|
D|------------------------------------------|
A|------------------------------------------|
E|--4--4--4--4--4--4--4--4------------------|

G|------------------------------------------|
D|------------------------------------------|
A|--8--8--8--8--8--8--8--8------------------|
E|------------------------------------------|

G|------------------------------------------|
D|------------------------------------------|
A|--6--6--6--6--6--6--6--6------------------|
E|------------------------------------------|

G|------------------------------------------|
D|------------------------------------------|
A|------------------------------------------|
E|--8--8--8--6--6--8--8--6------------------| x12
ⓘ Bass guitar tab for 'Were Gonna Dance On Gasoline' by Måneskin, a rock band formed in 2016 from Italian

Almost there ...

Sign in to get your own page with links to favourite songs and more. You are just one click away...

Login with Facebook Login with Google