Log in

One click and you are in

Login with Facebook Login with Google

Why sign up and log in

Guitar Tabs Explorer
Måneskin bass tabs for Torna a casa

Bass tabs with lyrics

Tuning: Standard (E A D G)

🎸 Bridge:
"Restiamo un po' di tempo ancora..."
G|----------------------------------|
D|----------------------------------|
A|----------------------------------|
E|-2--------------------------------|

"Che c'ho una frase scritta in..."
G|----------------------------------|
D|----------------------------------|
A|----------------------------------|
E|-4--------------------------------|


🎸 Chorus:
"Quindi Marlena torna a casa, che il.."
G|----------------------------------|
D|----------------------------------|
A|----------------------------------|
E|5---------------------------------|
"Quindi Marlena torna a casa, che non.."
G|----------------------------------|
D|----------------------------------|
A|----------------------------------|
E|0---------------------------------|
"Quindi Marlena torna a casa, che il.."
G|----------------------------------|
D|----------------------------------|
A|----------------------------------|
E|4---------------------------------|
"torna a casa, che ho paura di sparire.."
G|----------------------------------|
D|-------------------4--------------|
A|-------------4-6-7----------------|
E|---------------------5------------|
2x

🎸 Verse 2:
"E il cielo piano piano qua diventa..."
G|----------|
D|----------|
A|----------|
E|-4~~-4~-4-|

G|----------|
D|----------|
A|----------|
E|-4~~-4~-4-|

G|---------|
D|---------|
A|---------|
E|-7~-7-7-7|

G|-------------|
D|-------------|
A|-------------|
E|-6~--6-6-7-6-|
2x
G|----------|
D|-4~~-4~-4-|
A|----------|
E|----------|
2x

🎸 Chorus:

G|--------------------|
D|--------------------|
A|--------------------|
E|-5-5--5-5--5-5--5-5-|

G|--------------------|
D|--------------------|
A|--------------------|
E|-0-0--0-0--0-0--0-0-|

G|--------------------|
D|--------------------|
A|--------------------|
E|-4-4--4-4--4-4--4-4-|

G|-----------------|
D|-------------4-4-|
A|-4-4-6-6-7-7-----|
E|-----------------|
2x
🎸 Verse 3:

G|----------------------------------|
D|----------------------------------|
A|-4-4------4-4------4-4------4-4---|
E|----------------------------------|

G|----------------------------------|
D|----------------------------------|
A|-7-7------7-7------6-6------6-6---|
E|----------------------------------|

G|----------------------------------|
D|----------------------------------|
A|-4-4------4-4------7-7------7-7---|
E|----------------------------------|

G|----------------------------------|
D|----------------------------------|
A|----------------------------------|
E|6-6-6-6--6-6-6-6--6-6-6-6--6-6-6-6|

🎸 Outro:

G|----------------------------------|
D|----------------------------------|
A|----------------------------------|
E|---------------4-4--4-4--4-4--4-4-|

G|-----------------------------------|
D|-------------4-4-------------------|
A|-4-4-6-6-7-7-----------------------|
E|-----------------5-5--5-5--5-5--5-5|

G|----------------------------------|
D|----------------------------------|
A|--0-0--0-0--0-0--0-0--4-4--4-4--4-|
E|----------------------------------|

G|-------|
D|-------|
A|4--4-4-|
E|-------|
2x

G|----------------------------------|
D|-------------4-4------------------|
A|-4-4-6-6-7-7----------------------|
E|----------------------------------|
Then Its Guitar Ending

Almost there ...

Sign in to get your own page with links to favourite songs and more. You are just one click away...

Login with Facebook Login with Google