Log in

One click and you are in

Login with Facebook Login with Google

Why sign up and log in

Guitar Tabs Explorer
Måneskin bass tabs for Mammamia

Bass tabs

🎸 Intro:

G|---------------------------------------------------|
D|----------------------6---6---7--6--6-6-6----------|
A|--6---6--7-7-6--7-7-7---7---7----------------------| x2
E|4---4----------------------------------------------|

🎸 Verse 1:

G|---------------------------------------------------|
D|----------------------6---6---7--6--6-6-6----------|
A|--6---6--7-7-6--7-7-7---7---7----------------------| x4
E|4---4----------------------------------------------|


🎸 Chorus:

G|----------------------|
D|----------------------|
A|-6-6-6-6-7------------|
E|----------------------|

G|-----------------------------------------|
D|-----------------------------------------|
A|-----------------------------------------| x5
E|-6-6-6-6-7---7-7-7-7-7-9-7---------------|


🎸 Verse 2:

G|---------------------------------------------------|
D|----------------------6---6---7--6--6-6-6----------|
A|--6---6--7-7-6--7-7-7---7---7----------------------| x5
E|4---4----------------------------------------------|

G|---------------------------------------------------|
D|--------------------------6---7--6--6-6-6----------|
A|------6---6--7-7-6--7-7-7---7----------------------|
E|12/-4---4------------------------------------------|

G|---------------------------------------------------|
D|----------------------6---6---7--6--6-6-6----------|
A|--6---6--7-7-6--7-7-7---7---7----------------------| x2
E|4---4----------------------------------------------|

🎸 Chorus:

G|----------------------|
D|----------------------|
A|-6-6-6-6-7------------|
E|----------------------|

G|-----------------------------------------|
D|-----------------------------------------|
A|-6-6-6-6-7---7-7-7-7-7-9-7---------------| x5
E|-----------------------------------------|

🎸 Bridge:

G|-----------------------------------------|
D|-----------------------------------------|
A|-----------------------------------------| x9
E|-4--4--4-4--4--4-4--4--4--4-4------------|


🎸 Chorus:

G|-----------------------------------------|
D|-----------------------------------------|
A|-----------------------------------------| x5
E|-6-6-6-6-7---7-7-7-7-7-9-7---------------|

🎸 Outro:

G|-----------------------------------------|
D|-----------------------------------------|
A|-----------------------------------------| x5
E|-6-6-6-6-7---7-7-7-7-7-9-7---------------|

Almost there ...

Sign in to get your own page with links to favourite songs and more. You are just one click away...

Login with Facebook Login with Google