Log in

One click and you are in

Login with Facebook Login with Google

Why sign up and log in

Guitar Tabs Explorer
Måneskin bass tabs for La paura del buio

Bass tabs

Tuning: Standard (E A D G)


Intro:

No bass
Verse 1:

G|---------------------------------------------------------------------------|
D|----------------------------4----------------------------------------------|
A|--------------------6---6p5-----6------------------------------------------|
E|-15\3---3h5-2---2----------------------------------------------------------| x1


G|---------------------------------------------------------------------------|
D|-------------------------4-------------------------------------------------|
A|-----------------6---6p5-----6---------------------------------------------|
E|-3---3h5-2---2-------------------------------------------------------------| x3


Chorus:

G|---------------------------------------------------------------------------|
D|-----------------------------------------4---------------------------------|
A|---------------------------------------------------------------------------|
E|-3---5-6---8-5---3--2--3---5-6---8-5---3-----------------------------------|

G|---------------------------------------------------------------------------|
D|-5-5-5-5---------------------4-4-5-5-5-5-----------------------------------|
A|---------6-6-6-6-5-5-5-5-5-5-------------6-6-6-6-5---3---------------------|
E|---------------------------------------------------------6---5-------------|

Rest

Verse 2:

G|---------------------------------------------------------------------------|
D|-------------------------4-------------------------------------------------|
A|-----------------6---6p5-----6---------------------------------------------|
E|-15\3---3h5-2---2----------------------------------------------------------| x1

G|---------------------------------------------------------------------------|
D|-------------------------4-------------------------------------------------|
A|-----------------6---6p5-----6---------------------------------------------|
E|-3---3h5-2---2-------------------------------------------------------------| x3


Chorus:

G|---------------------------------------------------------------------------|
D|-----------------------------------------4---------------------------------|
A|---------------------------------------------------------------------------|
E|-3---5-6---8-5---3--2--3---5-6---8-5---3-----------------------------------|

G|---------------------------------------------------------------------------|
D|-5-5-5-5---------------------4-4-5-5-5-5-----------------------------------|
A|---------6-6-6-6-5-5-5-5-5-5-------------6-6-6-6-5---3---------------------|
E|---------------------------------------------------------6---5-------------|


Bass Solo/Bridge:

G|---------------------------------------------------------------------------|
D|---------------------------------------------------------------------------|
A|-----6-3-5---5---6---6---3---6-3-------------------------------------------|
E|-3-------------------------------------------------------------------------| x6


Outro:

G|---------------------------------------------------------------------------|
D|-------------------------------------------------4-4-4-4-4-4-4-4-----------|
A|---------------------------------6-6-6-6-6-6-5-6---------------------------|
E|-3-3-3-3-3-3-3-3-2-2-2-2-2-2-2-2-------------------------------------------|

G|---------------------------------------------------------------------------|
D|-5-5-5-5-5-5-5-5-4-4-4-4-4-4-4-4-------------------------------------------|
A|---------------------------------6-6-6-6-6-6-6-6---------------------------|
E|-------------------------------------------------2-2-2-2-2-2-2-2-----------| x2

G|---------------------------------------------------------------------------|
D|---------------------------------------------------------------------------|
A|---------------------------------------------------------------------------|
E|-3-------------------------------------------------------------------------|

There is more going on in this outro section but I couldn't work it out

************************************

| h  Hammer-on
| p  Pull-off
| \  Slide down

************************************

Almost there ...

Sign in to get your own page with links to favourite songs and more. You are just one click away...

Login with Facebook Login with Google