Log in

One click and you are in

Login with Facebook Login with Google

Why sign up and log in

Guitar Tabs Explorer
Måneskin bass tabs for L altra dimensione

Bass tabs

Tuning: Standard (E A D G)


Chorus:
Bass starts at “Marlena, Marlena...”

G|------------------------------------------|
D|---3----3--3----3-------------------------|
A|-------------------4----4--3---3---3------| X3
E|------------------------------------------|

G|------------------------------------------|
D|---3----3--3----3-------------------------|
A|-------------------4----4--3---3----------|
E|------------------------------------------|


Verse 2:
“Amico mio devi essere felice...”

G|--------------------------------------|
D|--------------------------------------|
A|------------------1------3------------| X4
E|----1------1--------------------------|



Chorus:
“Marlena sì portami a ballare...”

G|----------------------------------------|
D|---3--3--3--3---------------------------|
A|---------------4--4--3--3---------------| X4
E|----------------------------------------|

Bass starts at the second “il ballo della vita”
G|-----------------------------------------|
D|---3--3----3-3--3--3---------------------|
A|----------------------4--4---4--3--3--3--| X4
E|-----------------------------------------|

Silence:


Outro:
Bass starts at the second “il ballo della vita”

G|-----------------------------------------|
D|---3--3----3-3--3--3---------------------|
A|----------------------4--4---4--3--3--3--| X4
E|-----------------------------------------|

ⓘ Måneskin is a rock band formed in 2016 from Italian

Almost there ...

Sign in to get your own page with links to favourite songs and more. You are just one click away...

Login with Facebook Login with Google