Log in

One click and you are in

Login with Facebook Login with Google

Why sign up and log in

Guitar Tabs Explorer
Måneskin bass tabs for I wanna be your slave

Bass tabs

  • Difficulty: Intermediate
Tuning: Standard (E A D G)

🎸 Verse 1:three times in total

G|-----6----------------------------------------------------------------------|
D|--------6--6--6/---7-----6--4--6--------------------------------------------|x3
A|--4-------------------------------4--4--------------------------------------|
E|----------------------------------------------------------------------------|

G|-----------------------------------------------------------------------------|
D|-----------------------7--7--4--4-----4-----------------------7--7--4--4--6--|x2
A|--4--4-----4--4--4-----------------------4--4-----4--4--4--------------------|
E|-----------------------------------------------------------------------------|
🎸 Refrain:

G|-----6-----6--6---------------------------------------------------------------|
D|-----------------7--7--4--4--6------------------------------------------------|x5
A|--4-----4---------------------------------------------------------------------|
E|------------------------------------------------------------------------------|

G|-----6-----6--6---------------------------------------------------------------|
D|------------------------------------------------------------------------------|
A|--4-----4---------------------------------------------------------------------|
E|------------------------------------------------------------------------------|


🎸 Chorus:

G|---------------------------------------------------------------------------|
D|---------------------------------------------------------------------------|
A|--4-----4--4--4-----4--4---------------------------------------------------|x4
E|--------------------------2--2--0--2-----0---------------------------------|

                4 rest

🎸 Verse 2:

G|-----6----------------------------------------------------------------------|
D|--------6--6--6---6--6/--7-----6--4--6--------------------------------------|x3
A|--4-------------------------------------4--4--------------------------------|
E|----------------------------------------------------------------------------|

rest for one count

🎸 Chorus:

G|---------------------------------------------------------------------------|
D|---------------------------------------------------------------------------|x2
A|--4--4-----4--4--4-----0--0------------------------------------------------|
E|-----------------------------2--2--4---------------------------------------|

G|-----6-----6--6------------------------------------------------------------|
D|---------------------------------------------------------------------------|
A|--4-----4--------0--0------------------------------------------------------|
E|-----------------------2--2--4---------------------------------------------|

G|-----6-----6--6------------------------------------------------------------|
D|---------------------------------------------------------------------------|
A|--4-----4------------------------------------------------------------------|
E|---------------------------------------------------------------------------|

G|---------------------------------------------------------------------------|
D|---------------------------------------------------------------------------|
A|--4-----4--4--4-----4------------------------------------------------------|
E|--------------------------2--2--0--2-----0---------------------------------|


rest for one count


************************************

| / Slide up

************************************

Almost there ...

Sign in to get your own page with links to favourite songs and more. You are just one click away...

Login with Facebook Login with Google