Log in

One click and you are in

Login with Facebook Login with Google

Why sign up and log in

Guitar Tabs Explorer
Måneskin bass tabs for For your love

Bass tabs

  • Difficulty: Intermediate
Tuning: Standard (E A D G)

🎸 Intro: (0:08-0:17)
G|-------------------|-----------------|--------------|
D|-------------------|-----------------|--------------|
A|-----5--5-5-5--7-8-|-/-12--13--13-13-|-13-12--10--8-|
E|-17\---------------|-----------------|--------------|

G|-----------------|------------------|-----------|
D|-----------------|------------------|-----------|
A|-5--5-5-5--7-8-/-|-12--13--13-13-13-|-12--10--8-|
E|-----------------|------------------|-----------|


🎸 Verse 1: (0:18-0:51)
G|-----------------------------|---------------------------------|----------------------------|
D|-----------------12----------|---------------------12----------|----------------------------|
A|-5--/-13---12h13----13--12---|-5--/--13------12-13----13-12h13-|-5--/-13---10h12-10-13--12\-|
E|-----------------------------|------------10-------------------|----------------------------|

G|-------------------------|-------------------------|---------------------------|
D|------------------12-----|--------------------12\--|---------------------------|
A|-5--/-13----12-13----13\-|-5--/-13----13--15-------|-5--/-13---10h12-10-13--12-|
E|-------------------------|-------------------------|---------------------------|

G|--------------------------------|----------------------|--------------------|
D|---------------------------12-\-|----------------------|--------------------|
A|-5--/-13----13-13-13-15-15------|-5--/-13--13-13-13-13-|-13-13-13-13-13-13\-|
E|--------------------------------|----------------------|--------------------|


🎸 Chorus 1: (0:52-1:11)
G|----------------------------|------------------------------|
D|----------------------------|-------------8--8-8-8-8-7-5---|
A|-5------------------------3-|-5---7---8------------------8-|
E|-----8--6--5--5-5-5-5-3-5---|------------------------------|

G|----------------------------|------------------------|---------------------|
D|----------------------------|-------------8--8-8-8-8-|-8-8-8-5-5-5-5-------|
A|-5------------------------3-|-5---7---8--------------|-------------------3-|
E|-----8--6--5--5-5-5-5-3-5---|------------------------|---------------3-5---|

🎸 Verse 2: (1:12-1:28)
G|-----------------------------|------------------------------|----------------------------|
D|-----------------12----------|------------------------------|------------------------15\-|
A|-5--/-13---12h13----13--12---|-5--/-13---10h12-10-13--12\---|-5--/-13----13-13-15-15-----|
E|-----------------------------|------------------------------|----------------------------|

G|----------------------|-----------------|
D|----------------------|-----------------|
A|-5--/-13--13-13-13-13-|-13-13-13-13-13\-|
E|----------------------|-----------------|


🎸 Chorus 2: (1:29-1:48)
G|----------------------------|----------------------------7-|
D|----------------------------|-------------8--8-8-8-8-7-5---|
A|-5------------------------3-|-5---7---8--------------------|
E|-----8--6--5--5-5-5-5-3-5---|------------------------------|

G|----------------------------|------------------------|-------------------------|
D|----------------7-----------|-------------8--8-8-8-8-|-8-8-8-5-5-5-5-5-5-5-5-5-|
A|-5--------------------------|-5---7---8--------------|-------------------------|
E|-----8--6--5--5---5-5-5-5-5-|------------------------|-------------------------|


🎸 Bridge: (1:49-2:05)
G|-----------------|-----------------|-----------------|-----------------|-----------------|
D|-----------------|-----------------|-----------------|---------7-7-7-7-|-8-8-8-8-8-8-8-8-|
A|-5-5-5-5-5-5-5-5-|-5-5-5-5-7-7-7-7-|-8-8-8-8-8-8-8-8-|-8-8-8-8---------|-----------------|
E|-----------------|-----------------|-----------------|-----------------|-----------------|

G|---------------------|-----------------|----------|-----------------|-----------------|-----------------|
D|-8-8-8-8-10-10-10-10-|-7-7-7-7-7-7-7-7-|-7--7-5---|-----------------|-----------------|-----------------|
A|---------------------|-----------------|--------8-|-5-5-5-5-5-5-5-5-|-5-5-5-5-7-7-7-7-|-8-8-8-8-8-8-8-8-|
E|---------------------|-----------------|----------|-----------------|-----------------|-----------------|

G|-----------------|-----------------|--------------------|-----------------|--------|
D|---------7-7-7-7-|-8-8-8-8-8-8-8-8-|-8-8-8-8-8-10-10-10-|-7-7-7-7-7-7-7-7-|-7--5---|
A|-8-8-8-8---------|-----------------|--------------------|-----------------|------8-|
E|-----------------|-----------------|--------------------|-----------------|--------|


Bass break.


Bass continues: (2:14-2:40)
G|-----------------------|
D|---------7--8-----8--7-|
A|-13\--5--------5-------|
E|-----------------------|

G|------------------|
D|----7--8-----8--7-|
A|-5--------5-------| x11
E|------------------|


Guitar 🎸 Solo: (2:42-3:17)
G|----------------------------|-----------------------|----------------7-|
D|----------------7---7-------|-----------------------|-8--8-8-8-8-7-8---|
A|-5--------------------7-5-7-|-5-5-5-5-5-5-5-5--7--8-|------------------|
E|-----8--6--5--5-------------|-----------------------|------------------|

G|----------------------------|------------------------------|
D|----------------------------|-------------8--8-8-8-8-7-5---|
A|-5------------------------3-|-5---7---8------------------8-|
E|-----8--6--5--5-5-5-5-3-5---|------------------------------|

G|----------------------------|------------------------------|
D|----------------------------|-------------8--8-8-8-8-8-8-8-|
A|-5------------------------3-|-5---7---8--------------------|
E|-----8--6--5--5-5-5-5-3-5---|------------------------------|

G|----------------------------|------------------------------|
D|----------------------------|-------------8--8-8-8-8-8-8-8-|
A|-5--------------------------|-5---7---8--------------------|
E|-----8--6--5--5-5-5-5-5-5-5-|------------------------------|


🎸 Chorus 3: (3:22-3:36)
G|------------------------7-|------------------------------|-----------------------------|----------------|
D|---------8--8-8-8-8-7-8---|------------------------------|------------8--8-8-8-8-8-8-8-|-5-5-5-5--------|
A|-7---8--------------------|-5--------------------------3-|-5---7---8-------------------|----------------|
E|--------------------------|-----8---6---5--5-5-5-5-3-5---|-----------------------------|---------3-5-/8-|


🎸 Outro: (3:37-3:42)
G|--------------|---------------------|
D|--------------|-------12------------|
A|-5--/-13------|-12h13----13--12\--5-|
E|--------------|---------------------|

************************************

| h  Hammer-on
| /  Slide up
| \  Slide down

************************************

Almost there ...

Sign in to get your own page with links to favourite songs and more. You are just one click away...

Login with Facebook Login with Google