Log in

One click and you are in

Login with Facebook Login with Google

Why sign up and log in

Guitar Tabs Explorer
Måneskin chords for Coraline ukulele

Guitar chords with lyrics

For the intro, first choruses and the first verse you
can use the regular chords for finger placement, but
there’s also another version that I find it to be a
bit easier.

The notes are: Dm Gm Em F Em

A|-------------------|-----1---1---1---1-|-------------------|-----0---0---------|
E|-----1---1---1---1-|---3---3---3---3---|-----3---3---3---3-|---1---1-----3---3-|
C|---2---2---2---2---|-------------------|---4---4---4---4---|-----------4---4---|
G|-------------------|-------------------|-------------------|-------------------|

Bb C F Em Dm C
A|---1---1---1---1---|-----3---3---3---3-|-----0---0---------|-----------3---3---|
E|-----1---1---1---1-|-------------------|---1---1-----3---3-|-----1---1-------1-|
C|-------------------|-------------------|-----------4---4---|---2---2-----------|
G|-------------------|---0---0---0---0---|-------------------|-------------0---0-|

A|---1---1---1---1---|-----3-------------|
E|-----1---1---1---1-|-------------------|
C|-------------------|-------------------|
G|-------------------|---0---------------|

Or, the alternate version where you only need to
slide your fingers across the fretboard.

A|-------------------|-------------------|-------------------|-----0---0---------|
E|-----1---1---1---1-|-----6---6---6---6-|-----3---3---3---3-|-------------3---3-|
C|---2---2---2---2---|---7---7---7---7---|---4---4---4---4---|---5---5---4---4---|
G|-------------------|-------------------|-------------------|-------------------|

A|---1---1---1---1---|-----3---3---3---3-|-----0---0---------|-----------3---3---|
E|-----1---1---1---1-|---3---3---3---3---|-------------3---3-|-----1---1---------|
C|-------------------|-------------------|---5---5---4---4---|---2---2-----------|
G|-------------------|-------------------|-------------------|-------------0---0-|

A|---1---1---1---1---|-----3-------------|
E|-----1---1---1---1-|---3---------------|
C|-------------------|-------------------|
G|-------------------|-------------------|

And from this point until the outro, you may strum the
chords.
If you can’t access the official chords for the song
here
I suggest looking them up at Uku Tabs; it’s
pretty much the same minus the G chord being replaced
by the Gm chord, but I honestly prefer Gm over G in
this song.

I’m also sure that I might be missing a lot of things
and perhaps is not the best tab you might find, but
I hope that it works as a stepping stone of some
sort meanwhile you find something a bit more
fulfilling.

ⓘ Måneskin is a rock band formed in 2016 from Italian

Almost there ...

Sign in to get your own page with links to favourite songs and more. You are just one click away...

Login with Facebook Login with Google