Log in

One click and you are in

Login with Facebook Login with Google

Why sign up and log in

Guitar Tabs Explorer
Måneskin bass tabs for Coraline

Bass tabs

Tuning: Standard (E A D G)

🎸 Verse 1:

G|-----------------------------------------|
D|--0-0-0-0---5-5-5-5---2-2-2-2---3-3-2-2--|
A|-----------------------------------------|
E|-----------------------------------------|
x7

G|-----------------------------------------|
D|-----------------------------------------|
A|--1-1-1-1--3-3-3-3---8-8--7-7--5-5--3-3--|
E|-----------------------------------------|


🎸 Bridge:

G|-----------------------------------------|
D|--0-0------------------------------------|
A|---------0-0----1-1------------0---------|
E|------------------------3----------------|
x6
G|----2--3--2--0----2--3--2--0-------------|
D|-----------------------------------------|
A|-----------------------------------------|
E|-----------------------------------------|


G|-----------------------------------------|
D|--0-0------------------------------------|
A|---------0-0----1-1-----------0-2-0------|
E|------------------------3----------------|

G|-----------------------------------------|
D|--0-0------------------------------------|
A|---------0-0----1-1-----------5-3-2------|
E|------------------------3----------------|

G|-----------------------------------------|
D|--0-0------------------------------------|
A|---------0-0----1-1----------------------|
E|------------------------3----------------|

🎸 Interlude:

G|-----------------------------------------|
D|---------0------7----5-------------------|
A|----------------------------8----7-------|
E|-----------------------------------------|

G|-----------------------------------------|
D|-----------7------8--8-------7-----------|
A|----3------------------------------------|
E|-----------------------------------------|

G|-----------------------------------------|
D|---------------3------2------------------|
A|-------0----------------------3----------|
E|-----------------------------------------|

🎸 Verse 2:
G|-----------------------------------------|
D|------------2--3-----------3--5----------|
A|------1---------------3------------------|
E|-----------------------------------------|

G|-----------------------------------------|
D|-----0---------7------8------------------|
A|-----------------------------------------|
E|-----------------------------------------|

G|--------0--------------------------------|
D|------------------3---2---3---2----------|
A|--3--------------------------------------|
E|-----------------------------------------|

G|-----------------------------------------|
D|-------------3--2----------3-------------|
A|-----0---------------------------0-------|
E|-----------------------------------------|

G|-----------------------------------------|
D|-----------------------------------------|
A|----------1----------------3-------------|
E|-----------------------------------------|

G|--------------0--------------------------|
D|----0------------------7-----------------|
A|-----------------------------------------|
E|-----------------------------------------|

G|-------------------2--3------------------|
D|-----------------------------------------|
A|-----3-----------------------------------|
E|-----------------------------------------|

G|-----------------------------------------|
D|---------3----2--------------------------|
A|---0----------------------------3-3-3-3--|
E|---------------------1-1-1-1-------------|

middle 8:

G|-----------------------------------------|
D|-----0--------------7---5------0---------|
A|-----------------------------------------|
E|-----------------------------------------|

G|--------------------2---3----------------|
D|-----------------------------------------|
A|----------3------------------------------|
E|-----------------------------------------|

G|-----------------------------------------|
D|-------------3--2------------------------|
A|------0------------------------3---------|
E|-----------------------------------------|

G|-----------------------------------------|
D|-----------------------------------------|
A|----------------------3--3--3--3---------|
E|-----1--1--1--1--------------------------|

G|-----------------------------------------|
D|--------0--------------------------------|
A|-----------------7------8--8-------------|
E|-----------------------------------------|

G|-----------------------------------------|
D|------------------5--3--2----------------|
A|------3----------------------------------|
E|-----------------------------------------|

G|-----------------------------------------|
D|------------------2------3--3------------|
A|-----0-----------------------------------|
E|-----------------------------------------|

G|-----------------------------------------|
D|-----------------------------------------|
A|------------------------3--3--3--3-------|
E|--------1--1--1--1-----------------------|


G|-----------------------------------------|
D|--0-0------------------------------------|
A|---------0-0----1-1-----------0-2-0------|
E|------------------------3----------------|

G|-----------------------------------------|
D|--0-0------------------------------------|
A|---------0-0----1-1-----------5-3-2------|
E|------------------------3----------------|

G|-----------------------------------------|
D|--0-0------------------------------------|
A|---------0-0----1-1----------------------|
E|------------------------3----------------|

G|-----------------------------------------|
D|---3----2------0-------------------------|
A|-----------------------------------------|
E|-----------------------------------------|

Almost there ...

Sign in to get your own page with links to favourite songs and more. You are just one click away...

Login with Facebook Login with Google