Log in

One click and you are in

Login with Facebook Login with Google

Why sign up and log in

Guitar Tabs Explorer
Måneskin bass tabs for Close to the top

Bass tabs

Tuning: EADG


Intro/Verse 1:

G|-----------------------------------------------------------------------------------------------------------|
D|-----------------------------------------------------------------------------------------------------------|
A|-5-------5-5------------5-5--7-7--7-7---5-5------------5-5--7-7--7-7---5-5-------------5-5--7-7--7-7-------|
E|---7-7--------5-5--7-7-----------------------5-5--7-7-----------------------5-5--7-7-----------------------|

G|-----------------------------------------------------------------------------------------------------------|
D|-----------------------------------------------------------------------------------------------------------|
A|-5-5-------------5-5--7-7----------------------------------------------------------------------------------|
E|------5-5--7-7---------------------------------------------------------------------------------------------|


Chorus:

G|-----------------------------------------------------------------------------------------------------------|
D|-----------------------------------------------------------------------------------------------------------|
A|-----------------------------------------------------------------------------------------------------------|
E|5-5-5-5-5-5-5-5-5-5-5-7-7-7-7-7-3-3-3-3-3-3-5-5-5-5-5-5-5-5-5-5-5-7-7-7-7-7-3-3-3-3-3-3-5-5-5-5-5-5-5-5-5-5|


Verse 2:

G|-----------------------------------------------------------------------------------------------------------|
D|-----------------------------------------------------------------------------------------------------------|
A|-----5-5----------5-5-7-7---------5-5------------5-5-7-7----------5-5-7-7----------5-5-7-7-----------------|
E|-7-7-----5-5-7-7------------5-7-7------5-5-7-7------------5-7-7-------------5-7-7--------------------------|


Chorus:

G|-----------------------------------------------------------------------------------------------------------|
D|-----------------------------------------------------------------------------------------------------------|
A|-----------------------------------------------------------------------------------------------------------|
E|5-5-5-5-5-5-5-5-5-5-5-7-7-7-7-7-3-3-3-3-3-3-5-5-5-5-5-5-5-5-5-5-5-7-7-7-7-7-3-3-3-3-3-3-5-5-5-5-5-5-5-5-5-5|


Bridge:

G|-----------------------------------------------------|
D|-----------------------------------------------------|
A|-----------------------------------------------------| X2
E|-5-7-5-7-5-7-5-7-5-7-5-7-5-3-3-3-3-3-3-5-5-5-5-5-5---|


Verse 3/Outro:

G|-------------------------------------------------|
D|-------------------------------------------------|
A|-------------------------------------------------| X4 But On The 4th Repition Add A 9 On The E String.
E|-9-9-9-9-9-9-5-5-5-5-5-5-7-7-7-7-7-7-7-7-7-7-7-7-|

Almost there ...

Sign in to get your own page with links to favourite songs and more. You are just one click away...

Login with Facebook Login with Google