Log in

One click and you are in

Login with Facebook Login with Google

Why sign up and log in

Guitar Tabs Explorer
Måneskin bass tabs for Beggin

Bass tabs

Tuning: Standard (E A D G)

🎸 Intro:

G|---4----2---------------------------------|
D|------------4----2------------------------|
A|---------------------5----2--2------------|
E|------------------------------------------|

G|------------------------------------------|
D|------------------------------------------|
A|---0---1---2------0---1---2----0---1---2--|
E|------------------------------------------|

🎸 Verse 1:

G|------------------------------------------|
D|------------------------2---2---2---------|
A|---2---2---2---5---2----------------------|
E|------------------------------------------|

G|------------------------------------------|
D|---------------2------4---4-----4---------|
A|---4---4---4------4----------5------4---0-|
E|------------------------------------------|
x2

🎸 Bridge:

G|------------------------------------------|
D|------------------------------------------|
A|--2--2--2-----------4---4---4-------------|
E|-----------3--3--3--------------2--2--2---|
x2

🎸 Chorus:

G|------------------------------------------|
D|---------------5---------2----2----2------|
A|---2---2---2-------2----------------------|
E|------------------------------------------|

G|------------------------------------------|
D|---------------2------4---4-----4---------|
A|---4---4---4------4----------5------4---0-|
E|------------------------------------------|
x2

🎸 Verse 2:

G|------------------------------------------|
D|------------------------------------------|
A|-------------4---------------2------------|
E|-----3--------------2--------------3------|

G|------------------------------------------|
D|------------------------------------------|
A|----4---4---4---4-------------------------|
E|---------------------2---2---2---2--------|


🎸 Bridge:

G|------------------------------------------|
D|------------------------------------------|
A|--2--2--2-----------4---4---4-------------|
E|-----------3--3--3--------------2--2--2---|
x2


🎸 Chorus:

G|------------------------------------------|
D|---------------5---------2----2----2------|
A|---2---2---2-------2----------------------|
E|------------------------------------------|

G|------------------------------------------|
D|---------------2------4---4-----4---------|
A|---4---4---4------4----------5------4---0-|
E|------------------------------------------|
x3

G|------------------------------------------|
D|------------------------------------------|
A|------------------------------------------|
E|-----2---2---2---2---2--------------------|

G|------------------------------------------|
D|---------------2------4---4-----4---------|
A|---4---4---4------4----------5------4---0-|
E|------------------------------------------|

🎸 Verse 3:

G|------------------------------------------|
D|------------------------------------------|
A|-------------4---------------2------------|
E|-----3--------------2--------------3------|

G|------------------------------------------|
D|------------------------------------------|
A|----4---4---4---4-------------------------|
E|---------------------2---2---2---2--------|

🎸 Chorus:

G|------------------------------------------|
D|------------------------------------------|
A|---2-------------4--4---------------------|
E|----------3-----------------2--2--2--2----|

G|------------------------------------------|
D|------------------------------------------|
A|---2-----------4--4--4--------------------|
E|--------3--3----------------2--2--2--2----|

G|------------------------------------------|
D|---------------5---------2----2----2------|
A|---2---2---2-------2----------------------|
E|------------------------------------------|

G|------------------------------------------|
D|---------------2------4---4-----4---------|
A|---4---4---4------4----------5------4---0-|
E|------------------------------------------|

last two bars x4

Almost there ...

Sign in to get your own page with links to favourite songs and more. You are just one click away...

Login with Facebook Login with Google