Log in

One click and you are in

Login with Facebook Login with Google

Why sign up and log in

Guitar Tabs Explorer
Måneskin bass tabs for Beggin (Ver. 2)

Bass tabs with lyrics

Key: Bm

🎸 Intro:
 Bm
G|----------------|----------------|----------------|--------4-2-----|
D|----------------|----------------|----------------|-----------4-2--|
A|----------------|----------------|----------------|--------------5-|
E|----------------|----------------|----------------|----------------|
 1 + 2 + 3 + 4 + 1 + 2 + 3 + 4 + 1 + 2 + 3 + 4 + 1 + 2 + 3 + 4 +


G|----------------|----------------|----------------|----------------|
D|----------------|----------------|----------------|----------------|
A|2-------------0-|2-------------0-|2-------------0-|2---------------|
E|------------23--|------------23--|------------23--|----------------|
 1 + 2 + 3 + 4 + 1 + 2 + 3 + 4 + 1 + 2 + 3 + 4 + 1 + 2 + 3 + 4 +


🎸 Chorus:
 Bm        G/E       C#m7b5      F#7
G|----------------|----------------|----------------|----------------|
D|----------------|2-----2-----2---|------------2---|4-----4---4-----|
A|2-----2---2-5-2-|----------------|4-----4---4---4-|--------4---4-0-|
E|----------------|----------------|----------------|----------------|
 1 + 2 + 3 + 4 + 1 + 2 + 3 + 4 + 1 + 2 + 3 + 4 + 1 + 2 + 3 + 4 +

 Bm        G/E       C#m7b5      F#7
G|----------------|----------------|----------------|----------------|
D|----------------|2-----2-----2---|------------2---|4-----4---4-----|
A|2-----2---2-5-2-|----------------|4-----4---4---4-|--------4---4-0-|
E|----------------|----------------|----------------|----------------|
 1 + 2 + 3 + 4 + 1 + 2 + 3 + 4 + 1 + 2 + 3 + 4 + 1 + 2 + 3 + 4 +

🎸 Verse 1:
 Bm        G        C#m7b5      F#7
G|----------------|----------------|----------------|----------------|
D|----------------|----------------|----------------|----------------|
A|2-2-2-----------|----------------|4-4-4-----------|----------------|
E|----------------|3-3-3-----------|----------------|2-2-2-----------|
 1 + 2 + 3 + 4 + 1 + 2 + 3 + 4 + 1 + 2 + 3 + 4 + 1 + 2 + 3 + 4 +

 Bm        G        C#m7b5      F#7
G|----------------|----------------|----------------|----------------|
D|----------------|----------------|----------------|----------------|
A|2-2-2-----------|----------------|4-4-4-----------|----------------|
E|----------------|3-3-3-----------|----------------|2-2-2-----------|
 1 + 2 + 3 + 4 + 1 + 2 + 3 + 4 + 1 + 2 + 3 + 4 + 1 + 2 + 3 + 4 +

🎸 Verse 2:

G|----------------|----------------|----------------|----------------|
D|----------------|----------------|----------------|----------------|
A|----------------|----------------|----------------|----------------|
E|----------------|----------------|----------------|----------------|
 1 + 2 + 3 + 4 + 1 + 2 + 3 + 4 + 1 + 2 + 3 + 4 + 1 + 2 + 3 + 4 +

G|----------------|----------------|----------------|----------------|
D|----------------|----------------|----------------|----------------|
A|----------------|----------------|----------------|----------------|
E|----------------|----------------|----------------|----------------|
 1 + 2 + 3 + 4 + 1 + 2 + 3 + 4 + 1 + 2 + 3 + 4 + 1 + 2 + 3 + 4 +

🎸 Chorus:
 Bm        G/E       C#m7b5      F#7
G|----------------|----------------|----------------|----------------|
D|----------------|2-----2-----2---|------------2---|4-----4---4-----|
A|2-----2---2-5-2-|----------------|4-----4---4---4-|--------4---4-0-|
E|----------------|----------------|----------------|----------------|
 1 + 2 + 3 + 4 + 1 + 2 + 3 + 4 + 1 + 2 + 3 + 4 + 1 + 2 + 3 + 4 +

 Bm        G/E       C#m7b5      F#7
G|----------------|----------------|----------------|----------------|
D|----------------|2-----2-----2---|------------2---|4-----4---4-----|
A|2-----2---2-5-2-|----------------|4-----4---4---4-|--------4---4-0-|
E|----------------|----------------|----------------|----------------|
 1 + 2 + 3 + 4 + 1 + 2 + 3 + 4 + 1 + 2 + 3 + 4 + 1 + 2 + 3 + 4 +

🎸 Verse 3:
 Bm        G        C#m7b5      F#7
G|----------------|----------------|----------------|----------------|
D|----------------|----------------|----------------|----------------|
A|----------------|----------------|4---------------|----------------|
E|----------------|3---------------|----------------|2---------------|
 1 + 2 + 3 + 4 + 1 + 2 + 3 + 4 + 1 + 2 + 3 + 4 + 1 + 2 + 3 + 4 +

 Bm        G        C#m7b5      F#7
G|----------------|----------------|----------------|----------------|
D|----------------|----------------|----------------|----------------|
A|2---------------|----------------|4---------------|----------------|
E|----------------|3---------------|----------------|2---------------|
 1 + 2 + 3 + 4 + 1 + 2 + 3 + 4 + 1 + 2 + 3 + 4 + 1 + 2 + 3 + 4 +

🎸 Verse 4:
 Bm        G        C#m7b5      F#7
G|----------------|----------------|----------------|----------------|
D|----------------|----------------|----------------|----------------|
A|2-2-2-----------|----------------|4-4-4-----------|----------------|
E|----------------|3-3-3-----------|----------------|2-2-2-----------|
 1 + 2 + 3 + 4 + 1 + 2 + 3 + 4 + 1 + 2 + 3 + 4 + 1 + 2 + 3 + 4 +

 Bm        G        C#m7b5      F#7
G|----------------|----------------|----------------|----------------|
D|----------------|----------------|----------------|----------------|
A|2-2-2-----------|----------------|4-4-4-----------|----------------|
E|----------------|3-3-3-----------|----------------|2-2-2-----------|
 1 + 2 + 3 + 4 + 1 + 2 + 3 + 4 + 1 + 2 + 3 + 4 + 1 + 2 + 3 + 4 +

🎸 Verse 5:
 Bm        G/E       C#m7b5      F#7
G|----------------|----------------|----------------|----------------|
D|----------------|2-----2-----2---|------------2---|4-----4---4-----|
A|2-----2---2-5-2-|----------------|4-----4---4---4-|--------4---4-0-|
E|----------------|----------------|----------------|----------------|
 1 + 2 + 3 + 4 + 1 + 2 + 3 + 4 + 1 + 2 + 3 + 4 + 1 + 2 + 3 + 4 +

 Bm        G/E       C#m7b5      F#7
G|----------------|----------------|----------------|----------------|
D|----------------|2-----2-----2---|------------2---|4-----4---4-----|
A|2-----2---2-5-2-|----------------|4-----4---4---4-|--------4---4-0-|
E|----------------|----------------|----------------|----------------|
 1 + 2 + 3 + 4 + 1 + 2 + 3 + 4 + 1 + 2 + 3 + 4 + 1 + 2 + 3 + 4 +

 Bm        G/E       C#m7b5      F#7
G|----------------|----------------|----------------|----------------|
D|----------------|2-----2-----2---|------------2---|4-----4---4-----|
A|2-----2---2-5-2-|----------------|4-----4---4---4-|--------4---4-0-|
E|----------------|----------------|----------------|----------------|
 1 + 2 + 3 + 4 + 1 + 2 + 3 + 4 + 1 + 2 + 3 + 4 + 1 + 2 + 3 + 4 +


Chorus*:
 Bm                G        C#m7b5      F#7
G|----------------|----------------|----------------|----------------|----------------|
D|----------------|----------------|----------------|------------2---|4-----4---4-----|
A|2-2-2-2-2-------|----------------|----------------|4-----4---4---4-|--------4---4-0-|
E|----------------|----------------|3---------------|----------------|----------------|
 1 + 2 + 3 + 4 + 1 + 2 + 3 + 4 + 1 + 2 + 3 + 4 + 1 + 2 + 3 + 4 + 1 + 2 + 3 + 4 +

 Bm        G/E       C#m7b5      F#7
G|----------------|----------------|----------------|----------------|
D|----------------|2-----2-----2---|------------2---|4-----4---4-----|
A|2-----2---2-5-2-|----------------|4-----4---4---4-|--------4---4-0-|
E|----------------|----------------|----------------|----------------|
 1 + 2 + 3 + 4 + 1 + 2 + 3 + 4 + 1 + 2 + 3 + 4 + 1 + 2 + 3 + 4 +

🎸 Verse 6:
 Bm        G        C#m7b5      F#7
G|----------------|----------------|----------------|----------------|
D|----------------|----------------|----------------|----------------|
A|----------------|----------------|4---------------|----------------|
E|----------------|3---------------|----------------|2---------------|
 1 + 2 + 3 + 4 + 1 + 2 + 3 + 4 + 1 + 2 + 3 + 4 + 1 + 2 + 3 + 4 +

 Bm        G        C#m7b5      F#7
G|----------------|----------------|----------------|----------------|
D|----------------|----------------|----------------|----------------|
A|2---------------|----------------|4---------------|----------------|
E|----------------|3---------------|----------------|2---------------|
 1 + 2 + 3 + 4 + 1 + 2 + 3 + 4 + 1 + 2 + 3 + 4 + 1 + 2 + 3 + 4 +

🎸 Break:
 Bm        G        C#m7b5      F#7
G|----------------|----------------|----------------|----------------|
D|----------------|----------------|----------------|----------------|
A|2---------------|----------------|--4-4-----------|----------------|
E|----------------|3---------------|----------------|2---2---2---2---|
 1 + 2 + 3 + 4 + 1 + 2 + 3 + 4 + 1 + 2 + 3 + 4 + 1 + 2 + 3 + 4 +

 Bm        G        C#m7b5      F#7
G|----------------|----------------|----------------|----------------|
D|----------------|----------------|----------------|----------------|
A|2---------------|--------------4-|4-4-4-----------|----------------|
E|--------------3-|3---------------|----------------|2---2---2---2---|
 1 + 2 + 3 + 4 + 1 + 2 + 3 + 4 + 1 + 2 + 3 + 4 + 1 + 2 + 3 + 4 +

🎸 Chorus:
 Bm        G/E       C#m7b5      F#7
G|----------------|----------------|----------------|----------------|
D|----------------|2-----2-----2---|------------2---|4-----4---4-----|
A|2-----2---2-5-2-|----------------|4-----4---4---4-|--------4---4-0-|
E|----------------|----------------|----------------|----------------|
 1 + 2 + 3 + 4 + 1 + 2 + 3 + 4 + 1 + 2 + 3 + 4 + 1 + 2 + 3 + 4 +

 Bm        G/E       C#m7b5      F#7
G|----------------|----------------|----------------|----------------|
D|----------------|2-----2-----2---|------------2---|4-----4---4-----|
A|2-----2---2-5-2-|----------------|4-----4---4---4-|--------4---4-0-|
E|----------------|----------------|----------------|----------------|
 1 + 2 + 3 + 4 + 1 + 2 + 3 + 4 + 1 + 2 + 3 + 4 + 1 + 2 + 3 + 4 +

🎸 Outro:
 Bm        G/E       C#m7b5      F#7
G|----------------|----------------|----------------|----------------|
D|----------------|2-----2-----2---|------------2---|4-----4---4-----|
A|2-----2---2-5-2-|----------------|4-----4---4---4-|--------4---4-0-|
E|----------------|----------------|----------------|----------------|
 1 + 2 + 3 + 4 + 1 + 2 + 3 + 4 + 1 + 2 + 3 + 4 + 1 + 2 + 3 + 4 +

 Bm        G/E       C#m7b5      F#7       Bm
G|----------------|----------------|----------------|----------------|----------------|
D|----------------|2-----2-----2---|------------2---|4-----4---4-----|----------------|
A|2-----2---2-5-2-|----------------|4-----4---4---4-|--------4---4-0-|2---------------|
E|----------------|----------------|----------------|----------------|----------------|
 1 + 2 + 3 + 4 + 1 + 2 + 3 + 4 + 1 + 2 + 3 + 4 + 1 + 2 + 3 + 4 + 1 + 2 + 3 + 4 +
ⓘ Bass guitar tab for 'Beggin (Ver. 2)' by Måneskin, a rock band formed in 2016 from Italian

Other versions of Beggin

BegginBass tabs

Almost there ...

Sign in to get your own page with links to favourite songs and more. You are just one click away...

Login with Facebook Login with Google