Log in

One click and you are in

Login with Facebook Login with Google

Why sign up and log in

Guitar Tabs Explorer
Mando Diao bass tabs for Sheepdog

Bass tabs

song: sheepdog

author: mando diao

Tabbed by Michi (miscie128@hotmail.com)

Standard tuning EADG

Time 4/4



INTRO (main riff)

  B       E

G|---------------|--------------|

D|--9-9-7h9-7----|--------------|x6

A|------------98-|7-7-5h7-5--5--|

E|---------------|----------7---|



VERSE

  Bm
D

G|--------------------|--------------------|---------------|-------------|

D|-7h9999-7h9999-7h99-|-7h9999-7h9999-7h99-|---------------|-------------|

A|--------------------|--------------------|-5--5--5-0-2-5-|0-2-5-0-2-5--|

E|--------------------|--------------------|---------------|-------------|


  Em             F#

G|--------------|------------|------|-------|

D|--2-0-2-------|2-0-2-----2-|-4-4-4|/9-9-9-|

A|--------0-2-5-|------2-5---|------|-------|

E|--------------|------------|------|-------|


  Bm
D

G|--------------------|--------------------|---------------|-------------|

D|-7h9999-7h9999-7h99-|-7h9999-7h9999-7h99-|---------------|-------------|

A|--------------------|--------------------|-5--5--5-0-2-5-|0-2-5-0-2-5--|

E|--------------------|--------------------|---------------|-------------|


  Em             F#

G|--------------|------------|------|---------|

D|--2-0-2-------|2-0-2-----2-|-4-4-4|/99999999|

A|--------0-2-5-|------2-5---|------|---------|

E|--------------|------------|------|---------|



CHORUS

  G        A     D   C#  Bm   G
F#

G|---------------|-7-9-7-6---|-----------|-------|------------|------------|
D|-5-----4-5-9---|---------7-|-----------|-------|------------|------------|
A|---5-7-------0-|-----------|5--7-5-4-5-|2--0-0-|------------|------------|
E|---------------|-----------|-----------|-------|3-0-2-3--5-3|-2-/7-7-7-7-|
  Bm

G|-----------------------------|

D|--9-9-7h9-7------------------|

A|------------98---------------|

E|---------------7-7-5h7-5-20--|


  G        A     D   C#  Bm   G
F#

G|---------------|-7-9-7-6---|-----------|-------|------------|---|

D|-5-----4-5-9---|---------7-|-----------|-------|------------|---|

A|---5-7-------0-|-----------|5--7-5-4-5-|2--0-0-|------------|---|

E|---------------|-----------|-----------|-------|3-0-2-3--5-3|-2-|

  Bm

G|-----------------------------|

D|--9-9-7h9-7------------------|x2

A|------------98-7-7-5h7-5--5--|

E|-------------------------7---|



VERSE x1



CHORUS x1



SOLO (play the main riff four times)


POST SOLO

  F#                        F#
A

G|--11-11-9h11-9-------|--------------|--------------|-------------|

D|---------------11-10-|--------------|--------------|-------------|

A|---------------------|9-9-7h9-7---7-|9-9-7h9-7-----|-------------|

E|---------------------|----------9---|----------9-8-|2-2-2-5-5-5--|


SLOW PART

G|---------|------------|-----------|

D|---------|------------|----4------|

A|--2---0--|-5--4--2--0-|------4----|

E|---------|------------|-3------2--|


END (play the main riff as needed)



____________________________________________________________________________

Almost there ...

Sign in to get your own page with links to favourite songs and more. You are just one click away...

Login with Facebook Login with Google