The Days Of Wine And Roses by Henry Mancini

The Days Of Wine And Roses tab by Henry Mancini

Guitar tabs

Tuning: Standard (E A D G B E)

e|------5--------------|----------------5----|-8----10--------8----|-5-------------------|
B|------5--------------|-5---------8---------|-----------13--------|------10-------------|
G|-5----5---------5----|------6--------------|---------------------|------10---7----7----|
D|------7----7---------|------5--------------|------10-------------|------9--------------|
A|------8--------------|------6--------------|------9--------------|------10-------------|
E|---------------------|---------------------|------10-------------|---------------------|


e|---------------------|-8----5----5---------|---------------------|------5----3---------|
B|---------------------|-----------6---------|---------------------|----------------5----|
G|---------------------|-----------6----6----|-6-------------------|---------------------|
D|---------------------|-----------8---------|------8----7----6----|-5-------------------|
A|-10---9----8----7----|---------------------|---------------------|---------------------|
E|---------------------|---------------------|---------------------|---------------------|


e|-3-------------------|-----------10---5----|-8----6----8----6----|-----------5----5----|
B|-1----1----3----5----|-6----8--------------|---------------------|-10---8--------------|
G|-2-------------------|-5-------------------|-10------------------|-----------7---------|
D|-3-------------------|---------------------|-8---------8---------|-8---------5---------|
A|-0-------------------|-5-------------------|-10--------7---------|-7---------7---------|
E|---------------------|---------------------|-----------8---------|-8-------------------|


e|-0----3---------0----|------3----8---------|------5--------------|----------------5----|
B|-----------6----0----|-3-------------------|------5--------------|-5---------8---------|
G|------5---------0----|---------------------|-5----5---------5----|------6--------------|
D|------3--------------|------3----8---------|------7----7---------|------5--------------|
A|------5---------2----|------1----7---------|------8--------------|------6--------------|
E|----------------3----|------3----8---------|---------------------|---------------------|


e|-8----10--------8----|-5-------------------|---------------------|-8----5----5---------|
B|-----------13--------|------10-------------|---------------------|-----------6---------|
G|---------------------|------10---7----7----|---------------------|-----------6----6----|
D|------10-------------|------9--------------|---------------------|-----------8---------|
A|------9--------------|------10-------------|-10---9----8----7----|---------------------|
E|------10-------------|---------------------|---------------------|---------------------|


e|---------------------|------5----3---------|-3-------------------|-----------5----8----|
B|---------------------|----------------5----|-1----1----3----5----|-6----8--------------|
G|-6-------------------|---------------------|-2-------------------|-5-------------------|
D|------8----7----6----|-5-------------------|-3-------------------|---------------------|
A|---------------------|---------------------|-0-------------------|-5-------------------|
E|---------------------|---------------------|---------------------|---------------------|


e|-12---12---10--------|---------------------|---------------------|---------------------|
B|-10---9---------13---|-10---8----6----10---|------6--------------|----------------8----|
G|-10---10--------12---|----------------10---|-7----7----10--------|-----------7---------|
D|-9----8---------10---|------10---8----8----|------7----9---------|------7--------------|
A|----------------12---|------8----6----10---|------8----10--------|-7-------------------|
E|---------------------|------10---8---------|----------------8----|---------------------|


e|-7----10-------------|
B|---------------------|
G|---------------------|
D|---------------------|
A|---------------------|
E|---------------------|

Find guitar tabs and chords

A B C D E F G H I J K L M N O P Q R S T U V W X Y Z #