Pink Panther Theme  by Henry Mancini

Pink Panther Theme tab by Henry Mancini (Ver. 2)

Guitar tabs

The Pink Panther Theme Song


E|-----------|---------------------------------|
B|-----------|---------------------------------|
G|-----------|---------------------------------|
D|-----------|---------------3-2-------2-1-----|
A|-----------|-2-3------2-3-------0-3----------|
E|-2-3-4-5---|-----4-5-------------------------|
   (x3)


E|-------------------|
B|-------------------|
G|-------------------|
D|-0-----------------|
A|---3-0----0--------|
E|--------3----------|

E|-------------------------------------------|
B|-------------------------------------2-1---|
G|-------------------------------------------|
D|--------------------------3-2--------------|
A|------------2-3------2-3-------0-3---------|
E|-2-3-4-5--------4-5------------------------|


E|----------------------------------------------------|
B|----------------------------------------------------|
G|-0h2-0----------------------------------------------|
D|-------2-0-----0h1-01-0h1-0h1----0------------------|
A|-----------3-0-----------------------3-0----0-------|

Other versions of Pink Panther Theme

Alternative guitar chords and tabs for Pink Panther Theme by Henry Mancini

Find guitar tabs and chords

A B C D E F G H I J K L M N O P Q R S T U V W X Y Z #