Pink Panter Theme by Henry Mancini

Pink Panter Theme bass tab by Henry Mancini

Bass tabs

Verse:
G|---------------------------------------------------5-4--------------------------------|
D|---------------------------------------4-5-----4-5-----4-5----------------------------|
A|---------4-5-6-7----4-5-6-7----4-5-6-7-----6-7----------------------------------------|
E|--------------------------------------------------------------------------------------|

Chorus:
G|---4-3-----2-0-----------------------------------5-4-------9-8-------------------|
D|----------------2-0-2------------4-5-------4-5--------4-5------------------------|
A|-----------------------4-5-6-7--------6-7----------------------------------------|
E|---------------------------------------------------------------------------------|

Outro:
G|-------------9-7--------------------------------------------------------------------|
D|------------------8-7-5---8-7-8-8-7-7---5-------------------------------------------|
A|----4-5-6-7-------------7-----------------7-5-7-7-----------------------------------|

Find guitar tabs and chords

A B C D E F G H I J K L M N O P Q R S T U V W X Y Z #