Peter Gunn Theme Acoustic by Henry Mancini

Peter Gunn Theme Acoustic tab by Henry Mancini

Guitar tabs

Intro:
e----------------
B----------------
G----------------
D----------------
A----------------
E-0-0-2-0-3-0-5-4
Verse 1
e----------------
B----------------
G----------------
D----------------
A----------------
E-0-0-2-0-3-0-5-4
Chorus:
e----------------
B----------------
G----------------
D----------------
A----------------
E-0-0-2-0-3-0-5-4
Outro:
e----------------
B----------------
G----------------
D----------------
A----------------
E-0-0-2-0-3-0-5-4

Other versions of Peter Gunn Theme Acoustic

Alternative guitar chords and tabs for Peter Gunn Theme Acoustic by Henry Mancini

Find guitar tabs and chords

A B C D E F G H I J K L M N O P Q R S T U V W X Y Z #