Pantera Cor De Rosa by Henry Mancini

Pantera Cor De Rosa chords by Henry Mancini

Guitar chords with lyrics

Intro:

E|------------------------------------------|
B|------------------------------------------|
G|------------------------------------------|
D|------------------------------------------|
A|-4h5-6h7----7--4h5-6h7----7---------------|
E|----------7-------------7-----------------|

Primeira Parte:

E|------------------------------------------|
B|------------------------------------------|
G|---------------------5p4-----4\3~---------|
D|---------4h5-----4h5-----4h5--------------|
A|-4h5-6h7-----6h7--------------------------|
E|------------------------------------------|

E|------------------------------------------|
B|------------------------------------------|
G|-3\2p0------------------------------------|
D|-------0h2~-------------------------------|
A|------------------------------------------|
E|------------------------------------------|

Segunda Parte:

E|------------------------------------------|
B|-----------------------------5\4~---------|
G|---------------------5p4------------------|
D|---------4h5-----4h5-----4h5--------------|
A|-4h5-6h7-----6h7--------------------------|
E|------------------------------------------|

Primeira Parte:

E|------------------------------------------|
B|------------------------------------------|
G|---------------------5p4-----4\3~---------|
D|---------4h5-----4h5-----4h5--------------|
A|-4h5-6h7-----6h7--------------------------|
E|------------------------------------------|

E|------------------------------------------|
B|------------------------------------------|
G|-3\2p0------------------------------------|
D|-------0h2~-------------------------------|
A|------------------------------------------|
E|------------------------------------------|

[Terceira Parte

E|------------------------------------------|
B|---------3/5\3p0--------------------------|
G|-----------------2p0----2/3-2/3-2/3-2/3---|
D|---------------------2--------------------|
A|-4h5-6h7----------------------------------|
E|------------------------------------------|

E|------------------------------------------|
B|------------------------------------------|
G|-3\2p0------------------------------------|
D|-------0-2-2------------------------------|
A|------------------------------------------|

Find guitar tabs and chords

A B C D E F G H I J K L M N O P Q R S T U V W X Y Z #