Experiment In Terror by Henry Mancini

Experiment In Terror tab by Henry Mancini

Guitar tabs

Experiment in terror (Henri Mancini) (+ bassline)


 Intro Bassline (00:00)

G-|----------------|
D-|--------7-----7-|
A-|5---8-------8---|   x 4
E-|----------------|


  Intro chords (measure 3 and 4)

  Dm

E-|5---------------|
B-|6---------------|
G-|7---------------|
D-|7---------------|
A-|5---------------|
E-|5---------------|



  Part 2 = Bassline (00:14) : this part played twice (just till 01:02)

G-|----------------|----------------|----------------|--------9-------|
D-|--------7-----7-|----5---8---5-8-|--------7-----7-|----10------10-7|
A-|5---8-------8---|5---------------|5---8-------8---|12--------------|
E-|----------------|----------------|----------------|----------------|



G-|----7----10--7--|----7---10--7---|--------7-------|----------------|
D-|8-------------8-|7-------------7-|5---8-------8-5-|--------7-----7-|
A-|----------------|----------------|----------------|5---8-------8---|
E-|----------------|----------------|----------------|----------------|


  Part 2 = Guitar (00:15) : this part played twice (just till 01:02)

  Dm    Gm    Dm    Am    Dm        Gm    Dm

E-|--------|--------|--------|8-5-----|5-------|--------|--------|--------|
B-|---6----|8-------|---6----|--------|--8-----|8-6-----|6-5-----|--------|
G-|-7----7-|--------|-7----7-|--------|------7-|------7-|--------|5-7-----|
D-|--------|--------|--------|--------|--------|--------|--------|--------|
A-|--------|--------|--------|--------|--------|--------|--------|--------|
E-|--------|--------|--------|--------|--------|--------|--------|--------|


  Part 3 = Strings (01:05 till 01:30)

E-|--------|5-----3-|2-------|--------|---------|7----5-|4-------|3-------|
B-|--------|--------|-----(3-|4---5-)-|---------|-------|--------|--------|
G-|--3-5-6-|--------|--------|--------|--5-7-8--|-------|------4-|--------|
D-|--------|--------|--------|--------|---------|-------|--------|--------|
A-|--------|--------|--------|--------|---------|-------|--------|--------|
E-|--------|--------|--------|--------|---------|-------|--------|--------|

              (brass)

  Part 4 = End : guitar part (01:30)

Find guitar tabs and chords

A B C D E F G H I J K L M N O P Q R S T U V W X Y Z #