A Shot In The Dark by Henry Mancini

A Shot In The Dark tab by Henry Mancini

Guitar tabs

Jejeje, asi como yo dedbo leer en ingles ustedes van a tener que leer castellano...

El acompanamiento de guitarra seria:

--------------------------------------------------------------------------|
--------------------------------------------------------------------------|
--------------------------------------------------------------------------|
-------22-11-00-----------------------------------------------------------|
----------------22-11-00--------------------------------------------------|
-0-0----------------------------------------------------------------------|

Bue, y se sigue repitiendo...

Luego entra la melodia principal q es asi:

-----7-6-5-3-----------------------------7-6-5-3---------------------------|
---5---------5-3-55-3-5-3--------------5---------5-3-5--5-3-5--------------|
-4------------------------5-3-5------4------------------4-2-4--------------|
---------------------------------------------------------------------------|
---------------------------------------------------------------------------|
---------------------------------------------------------------------------|

Por supuesto para no caer en la monotonia, se puede provar boludeando con algunos acordes...

La parte que sigue seria algo asi:


--------------3--0--3---------------7--0--7---------------------------------|
--------------3--0--3---------------7--0--7---------------------------------|
----0-2-0-----3--0--3-------0-2-0---7--0--7---------------------------------|
-(2)------2--------------(2)------------------------------------------------|
----------------------------------------------------------------------------|
----------------------------------------------------------------------------|

--------------3--0--3---------------7--7--7---------------------------------|
--------------3--0--3---------------7--7--7---------------------------------|
----0-2-0-----3--0--3-------0-2-0---7--7--7---------------------------------|
-(2)------2--------------(2)------------------------------------------------|
----------------------------------------------------------------------------|
----------------------------------------------------------------------------|

Despues vaga por la melodia principal etc, asi que hagan como mas les guste...

 Espero que les sirva de algo, por mi parte, es una cancion genial, muy emotiva...Nos
por ahi...

AGUANTE LA Ñ.

Quiquehotline, Santa Fe, Argentina.

Find guitar tabs and chords

A B C D E F G H I J K L M N O P Q R S T U V W X Y Z #