Log in

One click and you are in

Login with Facebook Login with Google

Why sign up and log in

Guitar Tabs Explorer
Mana bass tabs for Vivir sin aire

Bass tabs with lyrics

This is a very rough version of the bass from "Vivir sin aire" as played in
"Mana en vivo". It is a very beautiful song, and I hope that more people
start posting more mana songs here in nevada. I hope that you can enjoy it.
Questions and/or suggestions are more than welme. Enrique Larez
<eal118@psu.edu>

  Esto, que sigue entonces es vivir sin aire, un tema acustico a ver que
tal...

(violin intro)

G----------------------------------------------------
D----------------------13---13--------(10)-----------
A-------11---11---11-------------11------------------
E----------------------------------------------------
                    hold this note

G-----------------------------------------------------
D-------13---13---13---11---10------------------------
A---------------------------------10---8---(10)---\11-
E-----------------------------------------------------
                      hold

Como quisiera...

and on and on until the chorus when...

E       C        D
como quisiera poder vivir sin aire


G------------------------------
D-------0---4--5---5--4--------
A------------------------------
E------------------------------

E       C     D
como quisiera calmar mi afliccion...

and so on... then go back to the intro, and then, near the end

G----------------------------------------
D------------10---11---------------------
A-------11-------------10---8------------
E----------------------------------------

twice or so.

well, I know that this isn't the best job, but at least I should give you a
pretty good idea of how the song goes. In any event, If you think you can
improve my work, which I know you can, please send anything!

Almost there ...

Sign in to get your own page with links to favourite songs and more. You are just one click away...

Login with Facebook Login with Google