Log in

One click and you are in

Login with Facebook Login with Google

Why sign up and log in

Guitar Tabs Explorer
Mana tabs for Selva negra

Guitar tabs

song: Como un perro enloquecido
Album: Cuando los angeles lloran

tabbed by Francisco Barros (chanchofbp@hotmail.com)
comments and questions are welcomed
Intro:
Let ring
A chord diagramBsus2Bsus2                 A chord diagramB minorBm
|--------------------|--------------------|
|-----2----------2---|-----3---------3----|
|-------4----------4-|-------4---------4--|
|---4-----4---4------|---4-----4---4------|
|-2---------2--------|-2---------2--------|
|--------------------|--------------------|

|-----0---------0----|---------------2/3--|-----2--|
|-------0---------0--|-----2--------------|----3---|
|--------------------|-------2-----0------|---4----|
|---4-----4---4------|---2-----2----------|--4-----|
|-2---------2--------|-0------------------|-2------|
|--------------------|-----------3--------|--------|


Verse:
|--7--7--7--7--|--7--7--7--7--|--7--7--7--7--|--7--7--7--7--|
|--7--7--7--7--|--7--7--7--7--|--7--7--7--7--|--7--7--7--7--|
|--7--7--7--7--|--7--7--7--7--|--7--7--7--7--|--7--7--7--7--|
|--9--9--9--9--|--9--9--9--9--|--9--9--9--9--|--9--9--9--9--|
|--------------|--------------|--------------|--------------|
|--------------|--------------|--------------|--------------|
|
|--------------|--------------|--------------|--------------|
|--------------|--------------|--------------|--------------|
|-----------6-7|-----------6-7|-----------6-7|-----------6-7|
|-9-9-9-7-9----|-9-9-9-7-9----|-9-9-9-7-9----|-9-9-9-7-9----|
|--------------|--------------|--------------|--------------|
|--------------|--------------|--------------|--------------|

|--5--5--5--5--|--5--5--5--5--|--7--7--7--7--|--7--7--3--5--|
|--5--5--5--5--|--5--5--5--5--|--7--7--7--7--|--7--7--3--5--|
|--6--6--6--6--|--6--6--6--6--|--7--7--7--7--|--7--7--4--6--|
|--7--7--7--7--|--7--7--7--7--|--9--9--9--9--|--9--9--5--7--|
|--------------|--------------|--------------|--------------|
|--------------|--------------|--------------|--------------|
|
|--------------|--------------|--------------|--------------|
|--------------|--------------|--------------|--------8--10-|
|-----------4-6|-----------4-6|-----------6-7|--------7--9--|
|-7-7-7-5-7----|-7-7-7-5-7----|-9-9-9-7-9----|-9-9-9--9--11-|
|--------------|--------------|--------------|--------------|
|--------------|--------------|--------------|--------------|

(Verse 2)
second time
|--5--5--5--5--|--5--5--5--5--|--7--7--7--7--|--7--7--7--7--|
|--5--5--5--5--|--5--5--5--5--|--7--7--7--7--|--7--7--7--7--|
|--6--6--6--6--|--6--6--6--6--|--7--7--7--7--|--7--7--7--7--|
|--7--7--7--7--|--7--7--7--7--|--9--9--9--9--|--9--9--9--9--|
|--------------|--------------|--------------|--------------|
|--------------|--------------|--------------|--------------|
|
|--------------|--------------|--------------|--------------|
|--------------|--------------|--------------|--------------|
|-----------4-6|-----------4-6|-----------6-7|-----------6-7|
|-7-7-7-5-7----|-7-7-7-5-7----|-9-9-9-7-9----|-9-9-9-7-9----|
|--------------|--------------|--------------|--------------|
|--------------|--------------|--------------|--------------|



Pre-chorus:
Que paso, que paso en la selva negra...

|--5--5--5--5--|--5--5--5--5--|--7--7--7--7--|--7--7--7--7--|
|--5--5--5--5--|--5--5--5--5--|--7--7--7--7--|--7--7--7--7--|
|--6--6--6--6--|--6--6--6--6--|--7--7--7--7--|--7--7--7--7--|
|--7--7--7--7--|--7--7--7--7--|--9--9--9--9--|--9--9--9--9--|
|--------------|--------------|--------------|--------------|
|--------------|--------------|--------------|--------------|
|
|--------------|--------------|--------------|--------------|
|5---5---5--5-5|--5--5----5---|--------------|--------------|
|---6--6---6-6-|-6--6---6---6-|-----------6-7|-----------6-7|
|--------------|--------------|-9-9-9-7-9----|-9-9-9-7-9----|
|--------------|--------------|--------------|--------------|
|--------------|--------------|--------------|--------------|

|--5--5--5--5--|--5--5--5--5--|-333---333----|-222----------|
|--5--5--5--5--|--5--5--5--5--|-333---333----|-222----------|
|--6--6--6--6--|--6--6--6--6--|-444---444----|-333----------|
|--7--7--7--7--|--7--7--7--7--|-555---555----|-444----------|
|--------------|--------------|-555---555----|-444----------|
|--------------|--------------|-333---333----|-222----------|
|
|--------------|--------------|-333---333----|-222----------|
|5---5---5--5-5|--5--5----5---|-333---333----|-222----------|
|---6--6---6-6-|-6--6---6---6-|-444---444----|-333----------|
|--------------|--------------|-555---555----|-444----------|
|--------------|--------------|--------------|--------------|
|--------------|--------------|--------------|--------------|


Chorus:
|--7--7--7--7--|--5--5--3--3--|--7--7--7--7--|--5--5--5--5--|
|--7--7--7--7--|--5--5--3--3--|--7--7--7--7--|--7--7--5--5--|
|--7--7--7--7--|--6--6--4--4--|--7--7--7--7--|--7--7--6--6--|
|--9--9--9--9--|--7--7--5--5--|--9--9--9--9--|--7--7--7--7--|
|--------------|--------------|--------------|--------------|
|--------------|--------------|--------------|--------------|
|
|----------9---|--------------|----------1010|10--10--9--9--|
|12--1212----12|10-1010-8--8--|12--1212------|--10--10-10-10|
|--11----11----|--9----9-7--7-|--11----11----|--------------|
|--------------|--------------|--------------|--------------|
|--------------|--------------|--------------|--------------|
|--------------|--------------|--------------|--------------|

...after Chorus
|-7------------|--------------|-10~~~~~~~~~~~|~(10)~~-------|
|-7------------|--------12-10-|-10~~~~~~~~~~~|~(10)~~-------|
|-7------------|--------------|--------------|--------------|
|-9------------|--------------|--------------|--------------|
|--------------|--------------|--------------|--------------|
|--------------|--------------|--------------|--------------|

(Verse 3) play verse 1

This could be verse 4 but it has some variations as a verse

|--7--7--7--7--|--7--7--7--7--|--7--7--7--7--|--7--7--7--7--|
|--7--7--7--7--|--7--7--7--7--|--7--7--7--7--|--7--7--7--7--|
|--7--7--7--7--|--7--7--7--7--|--7--7--7--7--|--7--7--7--7--|
|--9--9--9--9--|--9--9--9--9--|--9--9--9--9--|--9--9--9--9--|
|--------------|--------------|--------------|--------------|
|--------------|--------------|--------------|--------------|

|--7--7--7--7--|--7--7--7--7--|--7--7--7--7--|--7--7--7--7--|
|--7--7--7--7--|--7--7--7--7--|--7--7--7--7--|--7--7--7--7--|
|--7--7--7--7--|--7--7--7--7--|--7--7--7--7--|--7--7--7--7--|
|--9--9--9--9--|--9--9--9--9--|--9--9--9--9--|--9--9--9--9--|
|--------------|--------------|--------------|--------------|
|--------------|--------------|--------------|--------------|

|--5--5--5--5--|--5--5--5--5--|--7--7--7--7--|--7--7--7--7--|
|--5--5--5--5--|--5--5--5--5--|--7--7--7--7--|--7--7--7--7--|
|--6--6--6--6--|--6--6--6--6--|--7--7--7--7--|--7--7--7--7--|
|--7--7--7--7--|--7--7--7--7--|--9--9--9--9--|--9--9--9--9--|
|--------------|--------------|--------------|--------------|
|--------------|--------------|--------------|--------------|
|
|--------------|--------------|--------------|--------------|
|--------------|--------------|--------------|--------------|
|-----------4-6|-----------4-6|-----------6-7|-----------6-7|
|-7-7-7-5-7----|-7-7-7-5-7----|-9-9-9-7-9----|-9-9-9-7-9----|
|--------------|--------------|--------------|--------------|
|--------------|--------------|--------------|--------------|
|
|--------------|--------------|--------------|--------------|
|-----------3-5|-----------3-5|-----------5-7|-----------5-7|
|-6-6-6-4-6----|-6-6-6-4-6----|-7-7-7-6-7----|-7-7-7-6-7----|
|--------------|--------------|--------------|--------------|
|--------------|--------------|--------------|--------------|
|--------------|--------------|--------------|--------------|


(Pre-chorus)
add this guitar:
thi guitar is just a second voice to other gtr
|--------------|--------------|--------------|--------------|
|--------------|--------------|-----------5-7|-----------5-7|
|--------------|--------------|-7-7-7-6-7----|-7-7-7-6-7----|
|--------------|--------------|--------------|--------------|
|--------------|--------------|--------------|--------------|
|--------------|--------------|--------------|--------------|

(Chorus)

(Intro)
(arter chorus part)

Interlude:
there's a keyboard and
no guitar until this --------------------------V
|--------------|--------------|--------------|--3-3--2-2--5-|
|--------------|--------------|--------------|--3-3--3-3--7-|
|--------------|--------------|--------------|--4-4--4-4--7-|
|--------------|--------------|--------------|--5-5--4-4--7-|
|--------------|--------------|--------------|--5-5--2-2--5-|
|--------------|--------------|--------------|--3-3---------|

(chorus)


outro

|-2------------|--------------|--------------|--------------|
|-3------------|--------------|--------------|--------------|
|-4------------|--------------|-----4**------|--------------|
|-4------------|--------------|-----4**------|--------------|
|-2------------|--------------|--------------|--------------|
|--------------|--------------|--------------|--------------|
                               increase volume

play this twice:
You got to listen this and play it with funky feeling

|--------------|--------------|--------------|--------------|
|--------------|---------99910|--------------|------7-------|
|--77--77---7--|---7--77-7777-|---77----7----|---7--7-------|
|99--99---9--x-|-9---9--------|99----x9---x9-|-9------777-9~|
|--------------|--------------|--------------|--------------|
|--------------|--------------|--------------|--------------|

|--------------|--------------|--------------|--------------|
|--------------|---------99910|--------------|------7---5---|
|--77--77---7--|---7--77-7777-|---77----7----|---7--7---6---|
|99--99---9--x-|-9---9--------|99----x9---x9-|-9----------9~|
|--------------|--------------|--------------|--------------|
|--------------|--------------|--------------|--------------|

tabbed by Francisco Barros (chanchofbp@hotmail.com)
comments and questions are welcomed

Almost there ...

Sign in to get your own page with links to favourite songs and more. You are just one click away...

Login with Facebook Login with Google