Log in

One click and you are in

Login with Facebook Login with Google

Why sign up and log in

Guitar Tabs Explorer
Mana tabs for No para de llover

Guitar tabs with lyrics

Most of you do not probably know who Mana is, well, let me tell you that
they are one of, if not the most popular latin rock band in South America
at the present time. You can find their latest album "Cuando los Angeles
Lloran" in places like Tower Records (It is a great album, their live album
is awesome too.) If you have any questions or suggestions, please feel free
to e-mail me
at eal118@psu.edu
INTRO

E-----------------------------------------0----2----2-----
B----3----3----3----3----3------3----3--------------------
G---2----2----2----2----2------2----2----2----2----2------
D---------------------------------------------------------
A---------------------------------------------------------
E---------------------------------------------------------

E----2----2----2----2----2------3----3----0----5---------
B---3----3----3----3----3------3----3----3----3-----------
G---------------------------------------------------------
D---------------------------------------------------------
A---------------------------------------------------------
E---------------------------------------------------------

Do that one more time,

It kind of goes like that, I don't really remember, Play around with A chord diagramD MajorD and
you will get, it's very easy

the chords are

A chord diagramD MajorD                A chord diagramA augmentedA
desde ..
E---------------------------------------------------------
B---------------------------------------------------------
G---------------------------------------------------------
D-----------------------2----4----------------------------
A--------2----4----5--------------------------------------
E---5-----------------------------------------------------

   A chord diagramB minorBm                         A chord diagramG+G
...la luz ..

E---------------------------------------------------------
A---------------------------------------------------------
G---------------------------------------------------------
D---2----4----2-------------------------------------------
A------------------5----2----5----------------------------
E---------------------------------------------------------

A chord diagramD MajorD                     A chord diagramA augmentedA
...Mirada ..

(same thing)

A chord diagramB minorBm                     A chord diagramG+G                 A chord diagramD MajorD
...y en....

(back to Intro)

...and so on. I'm not sure about the position of the chords, but I know
that they are the right chords. there are some other details that you can
probably figure out yourself. Just use these chords and play around with
the struming.

Almost there ...

Sign in to get your own page with links to favourite songs and more. You are just one click away...

Login with Facebook Login with Google