Log in

One click and you are in

Login with Facebook Login with Google

Why sign up and log in

Guitar Tabs Explorer
Mana tabs for No ha parado de llover

Guitar tabs

No ha parado de llover
mana
Cuando los angeles lloran

tabbed by fco Barros (chanchofbp@hotmail.com)
comments and suggestions are welcomed
Intro:

|---------------------|-----------0---2---0--|
|---3---3---3---3---3-|---3---3--------------|
|-2---2---2---2---2---|-2---2---2---2---2----|
|---------------------|----------------------|
|---------------------|----------------------|
|---------------------|----------------------|

Here enters all the instruments
A chord diagramB minorBm         A chord diagramG+G           A chord diagramD MajorD         A chord diagramA augmentedA
|---2---2---3---3---3-|---2---2---0---5------|
|-3---3---3---3---3---|-3---3---3---3--------|
|---------------------|----------------------|
|---------------------|----------------------|
|---------------------|----------------------|
|---------------------|----------------------|


Riff 1:
A chord diagramD MajorD          A chord diagramG+G           A chord diagramD MajorD         A chord diagramA augmentedA
|---------------------|-----------0---2---0--|
|---3---3---3---3---3-|---3---3--------------|
|-2---2---2---2---2---|-2---2---2---2---2----|
|---------------------|----------------------|
|---------------------|----------------------|
|---------------------|----------------------|

                                    end of riff 1
A chord diagramB minorBm         A chord diagramG+G           A chord diagramD MajorD         A chord diagramA augmentedA
|---2---2---3---3---3-|---2---2---0---5------|
|-3---3---3---3---3---|-3---3---3---3--------|
|---------------------|----------------------|
|---------------------|----------------------|
|---------------------|----------------------|
|---------------------|----------------------|


Verse 1:

Desde que te perdi.....
A chord diagramD MajorD A(fill 1) A chord diagramB minorBm A chord diagramG+G
A chord diagramD MajorD A(fill 2) A chord diagramB minorBm A chord diagramG+G
A chord diagramD MajorD A(fill 1) A chord diagramB minorBm A chord diagramG+G

Fill 1
|-----------------|----------------------|
|-----------------|----------------------|
|-----------------|----------------------|
|-----------------|----------------------|
|--0-0-0-0-2-4-5--|-2-2--x-x-x-----------|
|-----------------|-------------3-3-3-3--|

Fill 2
|-----------------|----------------------|
|-----------------|----------------------|
|-----------------|----------------------|
|--2-2-2-4-2------|----------------------|
|------------5-2--|-5-2--x-x-x-----------|
|-----------------|-------------3-3-3-3--|

  A chord diagramD MajorD         A chord diagramG+G           A chord diagramD MajorD         A chord diagramG+G
|---------------------|----------------------|
|---3---3---3---3---3-|---3---3---3---3---3--|
|-2---2---2---2---2---|-2---2---2---2---2----|
|---------------------|----------------------|
|---------------------|----------------------|
|---------------------|----------------------|


Verse 2: (same thing as verse 1)
except the end:
  A chord diagramD MajorD         A chord diagramG+G           A chord diagramD MajorD         A chord diagramA augmentedA
|---------------------|-----------0---2---0--|
|---3---3---3---3---3-|---3---3--------------|
|-2---2---2---2---2---|-2---2---2---2---2----|
|---------------------|----------------------|
|---------------------|----------------------|
|---------------------|----------------------|


Pre-chorus:

A chord diagramB minorBm - A chord diagramG+G - A chord diagramA augmentedA - A chord diagramF# minorF#m
A chord diagramB minorBm - A chord diagramG+G - D(fiil 3) - A chord diagramA augmentedA
A chord diagramB minorBm - A chord diagramG+G - A chord diagramA augmentedA - A chord diagramF# minorF#m - A chord diagramG+G - A chord diagramG+G

Fill 3:
  A chord diagramD MajorD         A chord diagramA augmentedA
|---------------5--|
|-------5----------|
|---7-------7------|
|-7---7---7---7----|
|------------------|
|------------------|


Chorus: is like the intro...
just play riff 1 twice.


Verse 3:
A chord diagramD MajorD - A chord diagramA augmentedA - A chord diagramB minorBm - A chord diagramG+G
A chord diagramD MajorD - A chord diagramA augmentedA - A chord diagramB minorBm - A chord diagramG+G
A chord diagramD MajorD - A chord diagramA augmentedA - A chord diagramB minorBm - A chord diagramG+G
A chord diagramD MajorD - A chord diagramA augmentedA - A chord diagramB minorBm - A chord diagramG+G

  A chord diagramD MajorD         A chord diagramG+G           A chord diagramD MajorD         A chord diagramA augmentedA
|---------------------|-----------0---2---0--|
|---3---3---3---3---3-|---3---3--------------|
|-2---2---2---2---2---|-2---2---2---2---2----|
|---------------------|----------------------|
|---------------------|----------------------|
|---------------------|----------------------|


Pre chorus and chorus again, and then
Intelude:

A chord diagramG+G - A chord diagramG+G - A chord diagramG+G - A chord diagramG+G
Now enters a guitar and a piano:
A chord diagramD MajorD - A chord diagramG+G - A chord diagramD MajorD - A chord diagramG+G
A chord diagramD MajorD - A chord diagramG+G - A chord diagramA augmentedA - A chord diagramA augmentedA

Guitar:
|---------------------------------|
|-------3-------3-------3-------3-|
|---2-------2-------0-------0-----|
|-0---0---0---0---0---0---0---0---|
|---------------------------------|
|---------------------------------|

Piano:
|-3-0-2----------------|
|-------0-3---3--2-----|
|-------------------2--|
|----------------------|
|----------------------|
|----------------------|


Chorus again: play it two times.


Outro:
A chord diagramD MajorD - A chord diagramB minorBm - A chord diagramA augmentedA - A chord diagramG+G
A chord diagramD MajorD - A chord diagramB minorBm - A chord diagramA augmentedA - A chord diagramG+G

fade out...

tabbed by fco Barros (chanchofbp@hotmail.com)
comments and suggestions are welcomed

Other versions of No Ha Parado De Llover

No ha parado de lloverChords
No ha parado de llover acocusticTabs

Almost there ...

Sign in to get your own page with links to favourite songs and more. You are just one click away...

Login with Facebook Login with Google