Log in

One click and you are in

Login with Facebook Login with Google

Why sign up and log in

Guitar Tabs Explorer
Mana bass tabs for No ha parado de llover

Bass tabs

No ha parado de llover
mana
Cuando los angeles lloran

tabbed by fco Barros (chanchofbp@hotmail.com)
comments and suggestions are welcomed
Intro:

|-----|------------------|-------------------|
|-----|------------------|---------------2-4-|
|-10\-|-2--2--2----------|-5--5---5----------|
|-----|---------3---3--3-|----------5--5-----|

|---------------------|----------------------|
|---------------------|----------------------|
|-5--5---5------------|-5---5----5-----------|
|----------3--3---3---|------------5--5--5---|

|---------------------|----------------------|
|---------------------|----------------------|
|-2--2---2------------|-5---5----5-----------|
|----------3--3---3---|------------5--5--5---|


Verse:
|---------------------|----------------------|
|---------------------|----------------------|
|-5--5---5------------|-2---2----2-----------|
|----------5--5---5---|------------3--3--3---|

Last time of verse 1
|---------------------|----------------------|
|---------------------|----------------------|
|-5--5---5------------|-5---5----5-----------|
|-----------3--3--3---|------------3--3--3---|

play verse 2,
end of verse 2:
|---------------------|----------------------|
|---------------------|----------------------|
|-5--5---5------------|-5--5---5-4-4-4-4-5-4-|
|----------3--3--3----|----------------------|



Pre-chorus:

|---------------------|----------------------|
|---------------------|----------------------|
|-2---2---2-----------|----------------------|
|-----------3--3--3---|-5---5---5--2--2--2---|

|---------------------|----------------------|
|---------------------|----------------------|
|-2---2---2-----------|-5----5--5------------|
|-----------3--3---3--|------------5---5--5--|

|---------------------|----------------------|
|---------------------|----------------------|
|-2---2---2-----------|----------------------|
|-----------3--3--3---|-5---5---5--2--2--2---|

|---------------------|----------------------|
|---------------------|----------------------|
|---------------------|----------------------|
|-3-3-3-3-3-3-3-3-3-3-|-3-3-3-3-3-5-5-5-5-5--|


Chorus:

|---------------------|----------------------|
|---------------------|----------------------|
|-5--5---5------------|-5---5----5-----------|
|----------3--3---3---|------------5--5--5---|

|---------------------|----------------------|
|---------------------|----------------------|
|-2--2---2------------|-5---5----5-----------|
|----------3--3---3---|------------5--5--5---|


Play verse 3, same thing as verse 2

Prechorus

Chorus


Interlude

|---------------------|----------------------|
|---------------------|----------------------|
|---------------------|----------------------|
|-3-3-3-3-3-3-3-3-3-3-|-3-3-3-3-3-3-3-3-3-3-3|

|---------------------|----------------------|
|---------------------|----------------------|
|---------------------|----------------------|
|-3-3-3-3-3-3-3-3-3-3-|-3-3-3-3-3-3-3-3-3-3-3|

play this 3 times
|---------------------|----------------------|
|---------------------|----------------------|
|-5-5-5-5-5-5-5-5-5-5-|----------------------|
|---------------------|-3-3-3-3-3-3-3-3-3-3--|

and then this:
|---------------------|----------------------|
|---------------------|----------------------|
|---------------------|----------------------|
|-5-5-5-5-5-5-5-5-5-5-|-5-5-5-5-5-5-5-5-5-5--|


Chorus


Outro:

|---------------------|----------------------|
|---------------------|----------------------|
|-5---5--5-2--2---2---|----------------------|
|---------------------|-5--5----5-3--3-3-----|

Fade to end

tabbed by fco Barros (chanchofbp@hotmail.com)
comments and suggestions are welcomed

Almost there ...

Sign in to get your own page with links to favourite songs and more. You are just one click away...

Login with Facebook Login with Google