Log in

One click and you are in

Login with Facebook Login with Google

Why sign up and log in

Guitar Tabs Explorer
Mana tabs for Mis ojos

Guitar tabs

song: Mis Ojos
Album: Cuando los angeles lloran

tabbed by Francisco Barros (chanchofbp@hotmail.com)
comments and questions are welcomed
Intro
gtr 2    play this three times   and the 4th this:
||-------0-----|-------1-------||--------0-----|-------1-------|
||-----1---1---|-----3-----0---||------1---1---|-----3-----0---|
||º--0-------0-|---0-----0----º||----2-------2-|---0-----0-----|
||º------------|--------------º||--------------|---------------|
||-3-----------|---------------||-0------------|---------------|
||-------------|-3-------------||--------------|-3-------------|


Verse 1:
Electric guitar
|-0--0--1--|-0--0--0--|-0--0--1--|-0--0--0--|-1--1--1--|-0--0--0--|
|--1--1--1-|--1--1----|--1--1----|--1--1----|--1--1----|--1--1----|
|---0--0---|---0--0-0-|---2--2-2-|---2--2-2-|---2--2-2-|---0--0--0|
|----------|----------|----------|----------|----------|----------|
|----------|----------|----------|----------|----------|----------|
|----------|----------|----------|----------|----------|----------|
|acoustic guitar
|-0------0-|-0--------|-0------0-|-0--------|-1------1-|-3---3----|
|-1------1-|-1--------|-1------1-|-1--------|-1------1-|-3---3----|
|-0------0-|-0--------|-2------2-|-2--------|-2------2-|-0---0----|
|-2------2-|-2--------|-2------2-|-2--------|-3------3-|-0---0----|
|-3------3-|-3--------|-0------0-|-0--------|-3------3-|-2---2----|
|----------|----------|----------|----------|-1------1-|-3---3----|

Electric guitar
            1.________ 2.______________________________________
|-0--0--0--|----------|-0-------|-0------|-3-------|-1----------|
|--1--1----|--play----|-1-------|-1------|-3-------|-1----------|
|---0--0-0-|----------|-2-------|-2------|-0-------|-2----------|
|----------|-fill 1---|-2-------|-2------|-0-------|-3----5-75--|
|----------|----------|-0-------|-0------|-2-------|-3-5s7----75|
|----------|----------|---------|--------|-3-------|-1----------|
|acoustic guitar                                continues playing
|-0--------|-3---1----|-0-0-0-0-|--------|-3-3-3-3-|-1-1-1-3-3-3|
|-1--------|-3---1----|-1-1-1-1-|--------|-3-3-3-3-|-1-1-1-3-3-3|
|-0--------|-0---2----|-2-2-2-2-|--º-/---|-0-0-0-0-|-2-2-2-0-0-0|
|-2--------|-0---3----|-2-2-2-2-|---/----|-0-0-0-0-|-3-3-3-0-0-0|
|-3--------|-2---3----|-0-0-0-0-|--/-º---|-2-2-2-2-|-3-3-3-2-2-2|
|----------|-3---1----|---------|--------|-3-3-3-3-|-1-1-1-3-3-3|

Fill 1:
|-3-3\1---1-1\0---------|
|-5-5\3---3-3\1------1--|
|----------------0-2----|
|-----------------------|
|-----------------------|
|-----------------------|


Verse 2:
Electric guitar
|----------|---------|----------|---------|---------|
|---5-5--6-|-5--5--5-|-5--5-5-6-|-6-6-6-6-|-6-6-6-6-|
|---5-5--5-|-5--5--5-|-5--5-5-5-|-5-5-5-5-|-5-5-5-5-|
|---5------|----5----|-7-7------|-7-7-7-7-|-7-7-7-7-|
|-3--------|---------|----------|---------|---------|
|----------|---------|----------|---------|---------|

                     1.____________ 2._____________
|---------|---------|-3------------|-0------0------|
|-3-3-3-3-|-5-5-5-5-|-3------------|-1------1------|
|-4-4-4-4-|-5-5-5-5-|-0------------|-0------0------|
|-5-5-5-5-|-5-5-5-5-|-0-----5-75---|-2------0------|
|---------|---------|-2--5s7----75-|-3------2------|
|---------|---------|-3------------|---------------|


Pre-chorus:
just play chords...
(soledad me estas matando...)
A chord diagramA minorAm - A chord diagramE minorEm - A chord diagramFF - A chord diagramG+G - C-G/B
A chord diagramA minorAm - A chord diagramE minorEm - A chord diagramFF - A chord diagramG+G


Chorus:
acoustic gtr plays the chord sequence while electric plays this:
A chord diagramC majorC - A chord diagramA minorAm - A chord diagramFF - A chord diagramG+G

|-7h8-8-8-8-8-8-8-|-7h8-8-8-8-8-8-8-...| keeps doing the
|-8-8-8-8-8-8-8-8-|-8-8-8-8-8-8-8-8-...| same all the
|-7-7-7-7-7-7-7-7-|-7-7-7-7-7-7-7-7-...| chorus.
|-----------------|--------------------|
|-----------------|--------------------|
|-----------------|--------------------|

Then comes the solo:
electric gtr:
|-0--|-0--|-3--|-3--|-0--|-0--|-3--|-1----------------|
|-1--|-1--|-3--|-3--|-1--|-1--|-3--|-1----------------|
|-2--|-2--|-0--|-0--|-2--|-2--|-0--|-2----------------|
|-2--|-2--|-0--|-0--|-2--|-2--|-0--|-3-------5-7-5----|
|-0--|-0--|-2--|-2--|-0--|-0--|-2--|-3---5s7-------7-5|
|----|----|-3--|-3--|----|----|-3--|-1----------------|

A chord diagramC majorC                  A chord diagramC majorC
|-----------------|----------------------|
|-----------------|----------------------|
|-----------------|------------------5-7-|
|-------------5---|----------------5-----|
|-3---5p3-5s7-----|---3-3--5p3-5s7-------|
|-----------------|----------------------|

  A chord diagramA minorAm                A chord diagramA minorAm
|-----------------|-----5--------------|
|-----------------|---5---8-5----------|
|-7b-r--5-7p5-7b--|-7b--------7-5--7p5-|
|-----------------|--------------------|
|-----------------|--------------------|
|-----------------|--------------------|

  A chord diagramFF                 A chord diagramG+G
|-----------------|--------------------|
|-----------------|--------------------|
|-------------5-7b|-7-------5---7-5-7b-|
|-7---5-5-5h7-----|-------5---5--------|
|-----------------|--------------------|
|-----------------|--------------------|

  A chord diagramC majorC
|-----------------|--------------------|
|-----------------|--------------------|
|-5---------------|--------------5-----|
|-----------------|-7br-5--------------|
|-----------------|-------5br-3--------|
|-----------------|--------------------|


Verse

Prechorus

Chorus x2

Intro

Ends in A chord diagramC majorC

tabbed by Francisco Barros (chanchofbp@hotmail.com)
comments and questions are welcomed

Almost there ...

Sign in to get your own page with links to favourite songs and more. You are just one click away...

Login with Facebook Login with Google