Log in

One click and you are in

Login with Facebook Login with Google

Why sign up and log in

Guitar Tabs Explorer
Mana tabs for Huele a tristeza

Guitar tabs

song: Huele a tristeza
Album: Donde jugaran los niños (mana en Vivo)


Note:
I had this song at Mana en Vivo album but I'm sure that both versions
are the same.

tabbed by Francisco Barros (chanchofbp@hotmail.com)
comments and questions are welcomed
Note:
I had this song at Mana en Vivo album but I'm sure that both versions
are the same.


Intro
  A chord diagramC majorC
|-3-----------|---------------|-3------------|-----------5/7-|
|------5------|---6-----8--10-|-------5------|---6-----8-----|
|-5-----------|---------------|-5------------|-----------5/7-|
|------5----5/|/7---7/9----10-|-------5----5/|/7---7/9-------|
|-------------|---------------|--------------|---------------|
|-------------|---------------|--------------|---------------|


  A chord diagramC majorC
|-7-----------|---------------|-------0------|----------------|
|------5------|---6-----8--10-|-----1----1---|-3--8/10\9------|
|-8-----------|---------------|---2--------2-|-4--7/9-\7-5-7-5|
|------5----5/|/7---7/9----10-|-3------------|-5---------5-7-5|
|-------------|---------------|--------------|----------------|
|-------------|---------------|--------------|----------------|



Verse 1:

Solo huele a tristeza

A chord diagramC majorC - A chord diagramG+G - A chord diagramA minorAm - A chord diagramFF
A chord diagramC majorC - A chord diagramG+G - F-F
A chord diagramC majorC - A chord diagramG+G - A chord diagramA minorAm - A chord diagramFF
A chord diagramDsus2Dsus2 - A chord diagramG+G


Pre-chorus:
A chord diagramE minorEm - A chord diagramFF - C-G/B - A chord diagramA minorAm - A chord diagramG+G
A chord diagramFF - A chord diagramG+G - C-G/B - A chord diagramA minorAm - A chord diagramG+G
A chord diagramDsus2Dsus2 - A chord diagramDsus2Dsus2 - A chord diagramG+G - A chord diagramFF A chord diagramFF - A chord diagramG+G A chord diagramG+G


Chorus:
Huele atristeza este corazon...
A chord diagramC majorC - A chord diagramA minorAm - A chord diagramFF - A chord diagramG+G

Pre-verse:

A chord diagramA minorAm
|-----------------|
|-5h6p5-----------|
|-------7p5-5~~~~-|
|-----------------|
|-----------------|
|-----------------|


Verse

Prechorus

Chorus x2

Intro

Harmonica Solo: (play same thing as verse )


Outro:
Sabe sabe sabe a dolor

|--------------|-------------|-----------|-------------|
|-6-6--5-5-5-5-|-3-/-5-5-5-5-|-5h6-6-6-6-|-5-5-5-3-3-3-|
|-5-5--5-5-5-5-|-4-/-5-5-5-5-|-5-5-5-5-5-|-5-5-5-4-4-4-|
|--------------|-------------|-----------|-------------|
|--------------|-------------|-----------|-------------|
|--------------|-------------|-----------|-------------|

Ends in A chord diagramC majorC

tabbed by Francisco Barros (chanchofbp@hotmail.com)
comments and questions are welcomed

Almost there ...

Sign in to get your own page with links to favourite songs and more. You are just one click away...

Login with Facebook Login with Google