Log in

One click and you are in

Login with Facebook Login with Google

Why sign up and log in

Guitar Tabs Explorer
Mana tabs for En el muelle de san blas

Guitar tabs

En el muelle de san blas
mana
Cuando los angeles lloran

tabbed by fco Barros (chanchofbp@hotmail.com)
comments and suggestions are welcomed
Intro:

|---------7-------|---------5--------|
|-----8-------8---|-----5-------5----|
|---9---9---9---9-|---6---6---6---6--|
|-----------------|------------------|
|-7---------------|------------------|
|-0---------------|-5----------------|

|---------5-------|---------3----2---|
|-----5-------5---|-----3----------3-|
|---7---7---7---7-|---4---4---4------|
|-----------------|------------------|
|-5---------------|------------------|
|-----------------|-3----------------|

Play this riff all the verses and then
in nthe 3rd verse add this

|---------0-------|------------------|
|-----3-------3---|---------3--------|
|---0---0---0---0-|-----2-------2----|
|-----------------|---2---2---2---2--|
|-----------------|-0----------------|
|-0---------------|------------------|

|-----------------|------------------|
|---------3-------|---------0--------|
|-----2-------2---|-----0--------2---|
|---0---0---0---0-|---0---0----0---0-|
|-----------------|------------------|
|-2---------------|-3----------------|

Chorus:
Sola, sola en el olvido...


|---------0-------|---------0--------|
|-----3-------3---|-----3-------3----|
|---2---2---2---2-|---2---2---2---2--|
|-0---------------|------------------|
|-----------------|-4----------------|
|-----------------|------------------|

1.____________________________________
|---------0-------|---------0--------|
|-----3-------3---|-----3-------3----|
|---2---2---2---2-|---2---2---2---2--|
|-----------------|------------------|
|-2---------------|-4----------------|
|-----------------|------------------|

2.____________________________________
|---------0-------|-3-3-3-0-0-0-|-0--|
|-----3-------3---|-3-3-3-2-2-2-|-3--|
|---2---2---2---2-|-0-0-0-2-2-2-|-2--|
|-----------------|-0-0-0-2-2-2-|-0--|
|-2---------------|-2-2-2-0-0-0-|----|
|-----------------|-3-3-3-------|----|


Verse and chorus again

Interude:

|-------------2---|---|-----3---2----0---|---|
|-----3---2-------|---|-----------3----3-|---|
|---4---4---4---4-|o-/|---0---0----0-----|o-/|
|-----------------|-/-|------------------|-/-|
|-2---------------|/-o|------------------|/-o|
|-----------------|---|-3----------------|---|

|-------------2---|---|-0-0-0-0-0-0-0-0--|
|-----3---2-------|---|-2-2-2-2-2-2-2-2--|
|---4---4---4---4-|o-/|-2-2-2-2-2-2-2-2--|
|-----------------|-/-|-2-2-2-2-2-2-2-2--|
|-2---------------|/-o|-0-0-0-0-0-0-0-0--|
|-----------------|---|------------------|


Chorus again x2
and Outro:
  A chord diagramD MajorD
|-5--5-5-5-5-5-5-|-3---3-3-3-3-3-3--|
|-5--5-5-5-5-5-5-|-3---3-3-3-3-3-3--|
|-7--7-7-7-7-7-7-|-4---4-4-4-4-4-4--|
|-7--7-7-7-7-7-7-|-5---5-5-5-5-5-5--|
|-5--5-5-5-5-5-5-|-5---5-5-5-5-5-5--|
|----------------|-3---3-3-3-3-3-3--|


|--9--9-10-10-10-12-12-12-12-12-|-3-3-3-3-2-2-2-0-0-0-0-0-|
|-10-10-10-10-10-10-10-10-10-10-|-3-3-3-3-3-3-3-3-3-3-3-3-|
|-------------------------------|-------------------------|
|-------------------------------|-------------------------|
|-------------------------------|-------------------------|
|-------------------------------|-------------------------|

end.

tabbed by fco Barros (chanchofbp@hotmail.com)
comments and suggestions are welcomed

Other versions of En El Muelle De San Blas

En el muelle de San blasChords

Almost there ...

Sign in to get your own page with links to favourite songs and more. You are just one click away...

Login with Facebook Login with Google