Log in

One click and you are in

Login with Facebook Login with Google

Why sign up and log in

Guitar Tabs Explorer
Mana tabs for Cuando los angeles lloran

Guitar tabs

Title: Cuando Los Angeles Lloran-Unplugged
Album: Mana Unplugged

	Play with an acoustic guitar
	it's best to finger pick, but you can use a pick as well

 Play this part 1x
  A chord diagramA augmentedA                 A chord diagramA augmentedA  		    A chord diagramA augmentedA     	      A chord diagramA augmentedA

e-0--0-2-4-2-0------0--0-2-4-2------0--0-2-4-2-0------0--0-2-4-2---------------
B-2------------2-0--2----------5-2--2------------2-0--2----------5-4-2-4-------
G-2-----------------2---------------2-----------------2------------------------
D-2-----------------2---------------2-----------------2------------------------
A-0-----------------0---------------0-----------------0------------------------
E------------------------------------------------------------------------------

 Play this part 2x's

  A chord diagramA augmentedA
e-0--7-5-4-2-0---------------------------------0----2-4-5-4-2-0-0-4-2-4--------
B-2------------4-0-4-7-5--9-7-5-4-2-0------2-0---------------------------------
G-2--------------------------------------2-------2-----------------------------
D-2------------------------------------2---------------------------------------
A-0----------------------------------------------------------------------------
E------------------------------------------------------------------------------

Play this part 1x
                             A chord diagramA augmentedA

e-------0-2-4-5-7-0-4-2-0----0-------------------------------------------------
B-0-2-4-------------------4--2-------------------------------------------------
G----------------------------2-------------------------------------------------
D----------------------------2-------------------------------------------------
A----------------------------0-------------------------------------------------
E------------------------------------------------------------------------------

Almost there ...

Sign in to get your own page with links to favourite songs and more. You are just one click away...

Login with Facebook Login with Google