Log in

One click and you are in

Login with Facebook Login with Google

Why sign up and log in

Guitar Tabs Explorer
Mana chords for Clavado en un bar

Guitar chords with lyrics

This song is really easy, but the solo is very tricky.  I was fooling
around with my guitar and I figured it out in one shot!!


MANÁ-Clavado en un bar.
transcribed by Juan J. Penabad (Guatemala)
Chords:  (use this chord possitions if you want to play it like it is)

     A chord diagramBB      A chord diagramE MajorE       A chord diagramF#F#      A chord diagramG#G#    A chord diagramG# minorG#m    A chord diagramD#mD#m
E----7------7-------2------11------4------6
B----7------7-------2------11------4------7
G----8------9-------3------13------4------8
D----9------9-------4------13------6------8
A----9------7-------4------11------6------6
E----7------X-------2------X-------4------x



Intro-
	<B-E-B-E-F#-F#> 3 times , the fourth <B-E-G#>



verse 1 (reggae):

A chord diagramBB
 aquí..
A chord diagramF#F#
 soltando ...
A chord diagramG# minorG#m               A chord diagramE MajorE
 brindando..
A chord diagramBB
 aquí ..
A chord diagramF#F#
 bebiendo ..
A chord diagramG# minorG#m                 A chord diagramE MajorE
 y ..



pre chorus:

A chord diagramBB       A chord diagramF#F#     A chord diagramG# minorG#m
dónde ..
A chord diagramBB       A chord diagramE MajorE       A chord diagramF#F#
dónde ..
A chord diagramD#mD#m             A chord diagramE MajorE
abre ..
A chord diagramD#mD#m         A chord diagramE MajorE
deja ..
A chord diagramD#mD#m       A chord diagramE MajorE          A chord diagramF#F#
ven y ..



chorus:

A chord diagramBB              A chord diagramD#mD#m
 Estoy..
A chord diagramG# minorG#m                  A chord diagramE MajorE
 estoy ..
A chord diagramBB                  A chord diagramD#mD#m
 desesperado..
A chord diagramG# minorG#m                  A chord diagramE MajorE
 estoy ..


<B-E-B-E-F#-F#> 2X



verse 2: (same chords as verse 1)


pre chorus: (same chords)


cHORUS.


bridge:

A chord diagramC# minorC#m              A chord diagramE MajorE
 dejate..
               A chord diagramBB
 quiero ..
         A chord diagramD#mD#m
 y tu..

B-C#m               A chord diagramE MajorE
  ven ..
                 A chord diagramBB
yo..
                 A chord diagramF#F#
yo .



solo.

E---------------------------------------------------------------------------
-------
B-----------------------------17--19---17-h-19-p-17---14--------------------
-------
G-----16--18--20----16--18--20--------------------------------15-16-13--15p1
6-13---
D--/16--16--16---/16--16--16------------------------------------------------
-------
A---------------------------------------------------------------------------
-------
E---------------------------------------------------------------------------
-------

  I-----------very
fast--------------------------------------------------------I
E---------------------------19-----------I                     I
B--------------------19b(21)--21--20b(21)I                     I
G-----------16-18p16---------------------I haven´t figured     I
D--16-18-20------------------------------I this part out, yet!!I
A----------------------------------------I                     I
E----------------------------------------I                     I
(I´ve seen Sergio Vallín(maná´s guitarist) playing this and I know it isn´t
quite right but it sounds right!)


verse 3: (same as verse 1)
...


(same as chorus)

muy..
muy..
estoy ..
muy ..
muy ..
no,..
estoy ..


<B-E-B-E-F#-F#> 3X  the fourth <B-E-B-E-F#-F#-B----B-B>


----------------------------------------------------------------------------
-------
suggestions, corrections,... the "correct and finished" solo?  to
jpenabad@infovia.com.gt
Soy chapín, hecho en Guatemala.

sorry, my first transcription

Other versions of Clavado En Un Bar

Clavado en un barTabs

Almost there ...

Sign in to get your own page with links to favourite songs and more. You are just one click away...

Login with Facebook Login with Google