Log in

One click and you are in

Login with Facebook Login with Google

Why sign up and log in

Guitar Tabs Explorer
Mana bass tabs for Ana

Bass tabs

Intro(00:10)
G|-----6-4--------------------------------|
D|-1/4-----6-4----------------------------|
A|----------------------------------------|
E|----------------------------------------|

Verso
G|-------------------------------------------|
D|-------------------------------------------|
A|---4-4-444--2---------------------2-2-222--|
E|--------------5-5-555--4-2-2-222-----------|
Riff
G|-----6---------------------------------|
D|----6----------44----------------------|
A|--44-------------4---22-22-------------|
E|--------55-55-----2--------------------|

Riff2
G|----------------------------------------------------------|
D|----------------------------------------------------------|
A|--------------------------------------------22-222-22-222-|
E|--44-444-44-444-55-555-55-555-00-000-00-000---------------|

Verso2
G|-------------------------------------------|
D|-------------------------------------------|
A|---44-----------------------------22-------|
E|--------------55---------22----------------|

Fin
G|----------------------------|
D|----------------------------|
A|---4—-2---------------------|
E|--------22------------------|


Intro x1
Verso x2

Riff x2
Verso x3

Riff x2
Verso x3
Riff2 x2
Verso x1
Verso2 x2
Verso x3
Riff2 x2
Verso x6
Fin x1

Almost there ...

Sign in to get your own page with links to favourite songs and more. You are just one click away...

Login with Facebook Login with Google