Log in

One click and you are in

Login with Facebook Login with Google

Why sign up and log in

Guitar Tabs Explorer
Man With A Mission tabs for Raise your flag

Solo tabs with lyrics

-------------------------------------------------------------------------------
                             MAN WITH A chord diagramA augmentedA MISSION - Raise Your Flag
-------------------------------------------------------------------------------
Tabbed by: Rhaonoa / Ramiro Nicol s Gil
E-mail: resident_e4@hotmail.com
https://www.youtube.com/watch v=PiQpGzYMVos
INTRO
A chord diagramG+G|--------------------------------------------------------|
A chord diagramD MajorD|--------------------------------------------------------|
A chord diagramA augmentedA|--------------------------------------------------------|
A chord diagramE MajorE|-00x--00-0x--00-0x--00-0x--0-33x--33-3x--33-3x--33-3x-3-|

A chord diagramG+G|--------------------------------------------------------|
A chord diagramD MajorD|--------------------------------------------------------|
A chord diagramA augmentedA|--------------------------------------------------------|
A chord diagramE MajorE|-00x--00-0x--00-0x--00-0x--0-33x--33-3x--33-3x--33-3x-3-|

A chord diagramG+G|--------------------------------------------------------|
A chord diagramD MajorD|--------------------------------------------------------|
A chord diagramA augmentedA|--------------------------------------------------------|
A chord diagramE MajorE|-00x--00-0x--00-0x--00-0x--0-33x--33-3x--33-3x--33-3x-3-|

A chord diagramG+G|----------------------------------------|
A chord diagramD MajorD|----------------------------------------|
A chord diagramA augmentedA|----------------------------------------|
A chord diagramE MajorE|-00x--00-0x--00-0x--00-0x--0-33x--33-3x-|

A chord diagramG+G|----------------------------------------------|
A chord diagramD MajorD|----------------------------------------------|
A chord diagramA augmentedA|--7/--------7/--------7/--------7/--------15/-|
A chord diagramE MajorE|----------------------------------------------|


BRIDGE
A chord diagramG+G|----------------------------------------------------------------|
A chord diagramD MajorD|-----------------------------------------------------5-7--5---5-|
A chord diagramA augmentedA|-22-2-2--22-2-2--22-2-2--2-0-2-2--44-4-4--44-4-4--55--------7---|
A chord diagramE MajorE|----------------------------------------------------------------|

A chord diagramG+G|--------------------------------------------------------|
A chord diagramD MajorD|--------------------------------------------------------|
A chord diagramA augmentedA|-77-7-7--77-7-7--55-5-5--55-5-5--33-3-3--55-5-5--55-5-5-|
A chord diagramE MajorE|--------------------------------------------------------|

A chord diagramG+G|----------------------|
A chord diagramD MajorD|-7-5-4-5-4-0----------|
A chord diagramA augmentedA|--------------9--7--5-|
A chord diagramE MajorE|----------------------|


CHORUS
A chord diagramG+G|--------------------------------------------------------------------------------
A chord diagramD MajorD|--------------------------------------------------------------------------------
A chord diagramA augmentedA|-----------------------------------------3--33-33--3--33-33--3--33-33--3--33-33-
A chord diagramE MajorE|-0--00-00--0--00-00--0--00-00--0--00-00-----------------------------------------
--------------------------------------------------------------------------------|
--------------------------------------------------------------------------------|
--------------------------------------------------------------------------------|
-3--33-33--3--33-33--3--33-33--3--33-33--0--00-00--0--00-00--0--00-00--0--00-00-|

A chord diagramG+G|--------------------------------------------------------------------------------
A chord diagramD MajorD|--------------------------------------------------------------------------------
A chord diagramA augmentedA|-----------------------------------------3--33-33--3--33-33--3--33-33--3--33-33-
A chord diagramE MajorE|-0--00-00--0--00-00--0--00-00--0--00-00-----------------------------------------
--------------------------------------------------------------------------------|
--------------------------------------------------------------------------------|
-------------------------------------------------------------2--22-22--2--22-22-|
-3--33-33--3--33-33--3--33-33--3--33-33--0--00-00--0--00-00---------------------|

A chord diagramG+G|--------------------------------------------------------------------------------
A chord diagramD MajorD|--------------------------------------------------------------------------------
A chord diagramA augmentedA|-7--77-77--7--77-77--7--77-77--7--77-77--3--33-33--3--33-33--3--33-33--3--33-33-
A chord diagramE MajorE|--------------------------------------------------------------------------------
--------------------------------------------------------------------------------|
--------------------------------------------------------------------------------|
-5--55-55--5--55-55--5--55-55--5--55-55-----------------------------------------|
-----------------------------------------3--33-33--3--33-33--2--22-22--2--22-22-|

A chord diagramG+G|--------------------------------------------------------------------------------
A chord diagramD MajorD|--------------------------------------------------------------------------------
A chord diagramA augmentedA|-7--77-77--7--77-77--7--77-77--7--77-77--3--33-33--3--33-33--3--33-33--3--33-33-
A chord diagramE MajorE|--------------------------------------------------------------------------------
--------------------------------------------------------------------------------|
--------------------------------------------------------------------------------|
-5--55-55--5--55-55--5--55-55--5--55-55-----------------------------------------|
-----------------------------------------3--33-33--3--33-33--2--22-22--2--22-22-|

A chord diagramG+G|---------------------|
A chord diagramD MajorD|-33-3--5-3--33-5-3---|
A chord diagramA augmentedA|-------------------3-|
A chord diagramE MajorE|---------------------|

A chord diagramG+G|----------------------------------------------|
A chord diagramD MajorD|----------------------------------------------|
A chord diagramA augmentedA|-7/------5/--7/---------7/------5/--7/--------|
A chord diagramE MajorE|-----9-5---------5-3-2------9-5---------5-3-2-|


BRIDGE 2
A chord diagramG+G|----------------------------------------------------------------|
A chord diagramD MajorD|-----------------------------------------------------5-7--5---5-|
A chord diagramA augmentedA|-22-2-2--22-2-2--22-2-2--2-0-2-2--44-4-4--44-4-4--55--------7---|
A chord diagramE MajorE|----------------------------------------------------------------|

A chord diagramG+G|----------------------------------------------------------------|
A chord diagramD MajorD|------------9---------------7-----------------------------------|
A chord diagramA augmentedA|-77-7-7--77---7--55-5-5--55---5--33-3-3--33-3-3--55-5-5--55-5-5-|
A chord diagramE MajorE|----------------------------------------------------------------|

A chord diagramG+G|---------------------------------------|
A chord diagramD MajorD|-7-5-4-5-4-0---------------------------|
A chord diagramA augmentedA|-----------------3------------------3/-|
A chord diagramE MajorE|--------------0-----3--3x-3x-33x-3x----|


CHORUS
A chord diagramG+G|--------------------------------------------------------------------------------
A chord diagramD MajorD|--------------------------------------------------------------------------------
A chord diagramA augmentedA|-----------------------------------------3--33-33--3--33-33--3--33-33--3--33-33-
A chord diagramE MajorE|-0--00-00--0--00-00--0--00-00--0--00-00-----------------------------------------
--------------------------------------------------------------------------------|
--------------------------------------------------------------------------------|
--------------------------------------------------------------------------------|
-3--33-33--3--33-33--3--33-33--3--33-33--0--00-00--0--00-00--0--00-00--0--00-00-|

A chord diagramG+G|--------------------------------------------------------------------------------
A chord diagramD MajorD|--------------------------------------------------------------------------------
A chord diagramA augmentedA|-----------------------------------------3--33-33--3--33-33--3--33-33--3--33-33-
A chord diagramE MajorE|-0--00-00--0--00-00--0--00-00--0--00-00-----------------------------------------
--------------------------------------------------------------------------------|
--------------------------------------------------------------------------------|
-------------------------------------------------------------2--22-22--2--22-22-|
-3--33-33--3--33-33--3--33-33--3--33-33--0--00-00--0--00-00---------------------|

A chord diagramG+G|--------------------------------------------------------------------------------
A chord diagramD MajorD|--------------------------------------------------------------------------------
A chord diagramA augmentedA|-7--77-77--7--77-77--7--77-77--7--77-77--3--33-33--3--33-33--3--33-33--3--33-33-
A chord diagramE MajorE|--------------------------------------------------------------------------------
--------------------------------------------------------------------------------|
--------------------------------------------------------------------------------|
-5--55-55--5--55-55--5--55-55--5--55-55-----------------------------------------|
-----------------------------------------3--33-33--3--33-33--2--22-22--2--22-22-|

A chord diagramG+G|-------------------------|
A chord diagramD MajorD|-33-3--5-3--33-5-3-------|
A chord diagramA augmentedA|-------------------3--7/-|
A chord diagramE MajorE|-------------------------|

A chord diagramG+G|--------------------------------------------------------|
A chord diagramD MajorD|--------------------------------------------------------|
A chord diagramA augmentedA|--------------------------------------------------------|
A chord diagramE MajorE|-00x--00-0x--00-0x--00-0x--0-33x--33-3x--33-3x--33-3x-3-|

A chord diagramG+G|--------------------------------------------------------|
A chord diagramD MajorD|--------------------------------------------------------|
A chord diagramA augmentedA|--------------------------------------------------------|
A chord diagramE MajorE|-00x--00-0x--00-0x--00-0x--0-33x--33-3x--33-3x--33-3x-3-|


BRIDGE 3
A chord diagramG+G|--------------------------------------------------------------|
A chord diagramD MajorD|--------------------------------------------------------------|
A chord diagramA augmentedA|-77-7-7/--------1010-10-10/--------77-7-7/--------1010-10-10/-|
A chord diagramE MajorE|--------------------------------------------------------------|


A chord diagramG+G|------------------------------------------------|
A chord diagramD MajorD|------------------------------------------------|
A chord diagramA augmentedA|-77-7-7/----77-7-7----1010-10-10/----1010-10-10-|
A chord diagramE MajorE|------------------------------------------------|

A chord diagramG+G|------------------------------------------------|
A chord diagramD MajorD|------------------------------------------------|
A chord diagramA augmentedA|-77-7-7/----77-7-7----1010-10-10/----1010-10-10-|
A chord diagramE MajorE|------------------------------------------------|

A chord diagramG+G|----------------------------------------------------|
A chord diagramD MajorD|----------------------------------------------------|
A chord diagramA augmentedA|-77-77-7-77-7-77-7-7-1010-1010-10-1010-10101210--10-|
A chord diagramE MajorE|-----------------------------------------------12---|

A chord diagramG+G|------------------------------------------------------------|
A chord diagramD MajorD|------------9---------------7---------------------557-5---5-|
A chord diagramA augmentedA|-77-7-7--77---7--55-5-5--55---5--33-3-3--33-3-3--5------7---|
A chord diagramE MajorE|------------------------------------------------------------|

A chord diagramG+G|---------------------------------------|
A chord diagramD MajorD|-7-5-4-5-4-0---------------------------|
A chord diagramA augmentedA|-----------------3---------------------|
A chord diagramE MajorE|--------------0-----3--3x-3x-33x-3x-3--|


CHORUS 2
A chord diagramG+G|--------------------------------------------------------------------------------
A chord diagramD MajorD|--------------------------------------------------------------------------------
A chord diagramA augmentedA|-----------------------------------------3--33-33--3--33-33--3--33-33--3--33-33-
A chord diagramE MajorE|-0--00-00--0--00-00--0--00-00--0--00-00-----------------------------------------
--------------------------------------------------------------------------------|
--------------------------------------------------------------------------------|
--------------------------------------------------------------------------------|
-3--33-33--3--33-33--3--33-33--3--33-33--0--00-00--0--00-00--0--00-00--0--00-00-|

A chord diagramG+G|--------------------------------------------------------------------------------
A chord diagramD MajorD|--------------------------------------------------------------------------------
A chord diagramA augmentedA|-7--77-77--7--77-77--7--77-77--7--77-77--3--33-33--3--33-33--3--33-33--3--33-33-
A chord diagramE MajorE|--------------------------------------------------------------------------------
--------------------------------------------------------------------------------|
--------------------------------------------------------------------------------|
-5--55-55--5--55-55--5--55-55--5--55-55-----------------------------------------|
-----------------------------------------3--33-33--3--33-33--2--22-22--2--22-22-|

A chord diagramG+G|--------------------------------------------------------------------------------
A chord diagramD MajorD|--------------------------------------------------------------------------------
A chord diagramA augmentedA|-7--77-77--7--77-77--7--77-77--7--77-77--3--33-33--3--33-33--3--33-33--3--33-33-
A chord diagramE MajorE|--------------------------------------------------------------------------------
--------------------------------------------------------------------------------|
--------------------------------------------------------------------------------|
-5--55-55--5--55-55--5--55-55--5--55-55-----------------------------------------|
-----------------------------------------3--33-33--3--33-33--2--22-22--2--22-22-|

CLOSING
A chord diagramG+G|-----------------------------------|
A chord diagramD MajorD|-33-3--5-3--33-5-3-----------------|
A chord diagramA augmentedA|-------------------3--33-3-33-3-3h-|
A chord diagramE MajorE|-----------------------------------|

It took me a while to make and write these tabs, and I'd really appreciate some feedback; or if you learned
the song I'd love to see you play! I hope you enjoy, and hope they are good! They're my seconds tabs ever
made. If you have any remarks, opinions or any kind of suggestions, please post them! It was very difficult
for me to learn from just watching how other people played it, and watching concerts to try to pick up a few
of the notes - so I hope this will save you some time and help you play an awesome track!
Thanks you very much and enjoy! :)

( ? ?)? GOW GOW
-Rhaonoa

| /  slide up
| \  slide down
| h  hammer-on
| p  pull-off
| ~  vibrato
| +  harmonic
| x  Mute note

Almost there ...

Sign in to get your own page with links to favourite songs and more. You are just one click away...

Login with Facebook Login with Google