Log in

One click and you are in

Login with Facebook Login with Google

Why sign up and log in

Guitar Tabs Explorer
Man Overboard bass tabs for Secret pain

Bass tabs

-------------------------------------------------------------------------------
               SECRET PAIN - Man Overboard
-------------------------------------------------------------------------------
Tabbed by: cesare_moon
E-mail:

Album: Heart Attack
Year: 2013
Tuning: EADG


Intro ? 00.12 ? 00.25

G|---------------------------------------------------------------------------|
D|---------------------------------------------------------------------------|
A|---------------------------------2-2-2-2-2-2-2-2---------------------------|
E|-3-3-3-3-3-3-3-3-3-3-3-3-3-3-3-3-----------------1-1-1-1-1-1-1-1-----------| x2


Verse ? 00.25 ? 01.08

G|---------------------------------------------------------------------------|
D|---------------------------------------------------------------------------|
A|---------------------------------------------------------------------------|
E|-3-3-3-3-3-3-3-3-3-3-3-3-3-3-5-5-7-7-7-7-7-7-3-3-1-1-1-1-1-1-1-1-----------| x2

G|---------------------------------------------------------------------------|
D|---------------------------------------------------------------------------|
A|---------------------------------------------------------------------------|
E|-3-3-----------0---7-------------3-3-----------0--7------------------------|

G|---------------------------------------------------------------------------|
D|---------------------------------------------------------------------------|
A|---------------------------------------------------------------------------|
E|-3-3-3-3-3-3-3-3-3-3-3-3-3-3-5-5-7-7-7-7-7-7-3-3-1-1-1-1-1-1-1-1-----------| x2

G|---------------------------------------------------------------------------|
D|---------------------------------------------------------------------------|
A|---------------------------------------------------------------------------|
E|-3-3-----------0---7-------------3-3-----------0---------------------------|

Chorus ? 01.08 ? 01.33

G|---------------------------------------------------------------------------|
D|---------------------------------------------------------------------------|
A|---------------------------------------------------------------------------|
E|-7-7-7-7-7-7-7-7----0--0--0------3-3-3-3-3-3-3-3-3-3-3-3-3-5-9-7-----------|

G|---------------------------------------------------------------------------|
D|---------------------------------------------------------------------------|
A|---------------------------------------------------------------------------|
E|-7-7-7-7-7-7-7-7----0--0--0------3-3-3-3-3-3-3-3-3-3-3-3-3-3-0-0-----------|

G|---------------------------------------------------------------------------|
D|---------------------------------------------------------------------------|
A|---------------------------------------------------------------------------|
E|-0-0-0-0-0-0-0-0-1-1-1-1-1-1-1-1-3-3-3-3-3-3-3-3-7-7-7-7-7-7-7-7-----------|

G|---------------------------------------------------------------------------|
D|---------------------------------------------------------------------------|
A|-----------------3-3-3-3-3-3-3-3-------------------------------------------|
E|-0-0-0-0-0-0-0-0-----------------3-3-3-3-3-3-3-3-7-7-7-7-7-7-7-7-----------|


Bridge ? 01.40 ? 2.00

G|---------------------------------------------------------------------------|
D|---------------------------------------------------------------------------|
A|---------------------------------------------------------------------------|
E|-------------------------------------------------7-7-------7---------------|

G|---------------------------------------------------------------------------|
D|---------------------------------------------------------------------------|
A|---------------------------------------------------------------------------|
E|-7-7-7-7-7-7-7-7-7-7-7-7-7-7-7-7-7-7-7-7-7-7-7-7-7-7-7-7-7-7-7-7-----------|


Chorus ? 02.00 ? 02.25

G|---------------------------------------------------------------------------|
D|---------------------------------------------------------------------------|
A|---------------------------------------------------------------------------|
E|-7-7-7-7-7-7-7-7----0--0--0------3-3-3-3-3-3-3-3-3-3-3-3-3-5-9-7-----------|

G|---------------------------------------------------------------------------|
D|---------------------------------------------------------------------------|
A|---------------------------------------------------------------------------|
E|-7-7-7-7-7-7-7-7----0--0--0------3-3-3-3-3-3-3-3-3-3-3-3-3-3-0-0-----------|

G|---------------------------------------------------------------------------|
D|---------------------------------------------------------------------------|
A|---------------------------------------------------------------------------|
E|-0-0-0-0-0-0-0-0-1-1-1-1-1-1-1-1-3-3-3-3-3-3-3-3-7-7-7-7-7-7-7-7-----------|

G|---------------------------------------------------------------------------|
D|---------------------------------------------------------------------------|
A|-----------------3-3-3-3-3-3-3-3-------------------------------------------|
E|-0-0-0-0-0-0-0-0-----------------3-3-3-3-3-3-3-3-7-7-7-7-7-7-7-7-----------|


Outro ? 02.25 ? End.

G|---------------------------------------------------------------------------|
D|---------------------------------------------------------------------------|
A|---------------------------------2-2-2-2-2-2-2-2---------------------------|
E|-3-3-3-3-3-3-3-3-3-3-3-3-3-3-3-3-----------------1-1-1-1-1-1-1-1-----------| x2

G|---------------------------------------------------------------------------|
D|---------------------------------------------------------------------------|
A|---------------------------------------------------------------------------|
E|-3-3-----------0---7-------------------------------------------------------|

Thank you! :)

| / slide up
| \ slide down
| h hammer-on
| p pull-off
| ~ vibrato
| + harmonic
| x Mute note

Almost there ...

Sign in to get your own page with links to favourite songs and more. You are just one click away...

Login with Facebook Login with Google