Log in

One click and you are in

Login with Facebook Login with Google

Why sign up and log in

Guitar Tabs Explorer
Man Overboard bass tabs for Damage control

Bass tabs

-------------------------------------------------------------------------------
               DAMAGE CONTROL ? Man Overboard
-------------------------------------------------------------------------------
Tabbed by: cesare_moon
E-mail:

Album: Heart Attack
Year: 2013
Tuning: EADG


Intro ? 00.14 ? 00.28

G|---------------------------------------------------------------------------|
D|---------------------------------------------------------------------------|
A|-------------------------------------------------4-4-4-4-4-4-4-4-----------|
E|-1-1-1-1-1-1-1-1-0-0-0-0-0-0-0-0-4-4-4-4-4-4-4-4---------------------------| x2


Verse ? 00.28 ? 00.56

G|---------------------------------------------------------------------------|
D|---------------------------------------------------------------------------|
A|-------------------4-4-----------4-4-4-4---------4-4---4-------------------|
E|-1---------------1-----------------------------------0---------------------| x2

G|---------------------------------------------------------------------------|
D|---------------------------------------------------------------------------|
A|-----------------4-4-4-4-4-4-4-4-------------------------------------------|
E|-1-1-1-1-1-1-1-1-----------------0-0-0-0-0-0-0-0-0-0-0-0-0-0-0-------------| x2


Pre-Chorus ? 00.56 ? 01.09

G|---------------------------------------------------------------------------|
D|---------------------------------------------------------------------------|
A|-4-4---------4-------------------------------------------------------------|
E|----------------4--4---------4---1-1-1-1-1-1-1-1-1-1-1-1-1-1-1-------------|

G|---------------------------------------------------------------------------|
D|---------------------------------------------------------------------------|
A|-4-4---------4------------------------------------4-4-4--------------------|
E|----------------4--4---------4---0~--------------------4-4-4-1~------------|

Chorus ? 01.09 ? 01.23

G|---------------------------------------------------------------------------|
D|---------------------------------------------------------------------------|
A|-------------------------------------------------4-4-4-4-4-4-4-4-----------|
E|-1-1-1-1-1-1-1-1-0-0-0-0-0-0-0-0-4-4-4-4-4-4-4-4---------------------------| x2


Verse ? 01.23 ? 01.51

G|---------------------------------------------------------------------------|
D|---------------------------------------------------------------------------|
A|-------------------4-4-----------4-4-4-4---------4-4-4-4-------------------|
E|-1---------------1---------------------------------------------------------|

G|---------------------------------------------------------------------------|
D|---------------------------------------------------------------------------|
A|-------------------4-4-----------4-4-4-4---------4-4-4-4-4-4-4-4-----------|
E|-1---------------1---------------------------------------------------------|

G|---------------------------------------------------------------------------|
D|---------------------------------------------------------------------------|
A|-----------------4-4-4-4-4-4-4-4-------------------------------------------|
E|-1-1-1-1-1-1-1-1-----------------0-0-0-0-0-0-0-0-0-0-0-0-0-0-0-------------| x2


Pre-Chorus ? 01.51 ? 02.04

G|---------------------------------------------------------------------------|
D|---------------------------------------------------------------------------|
A|-4-4---------4-------------------------------------------------------------|
E|----------------4--4---------4---1-1-1-1-1-1-1-1-1-1-1-1-1-1-1-------------|

G|---------------------------------------------------------------------------|
D|---------------------------------------------------------------------------|
A|-4-4---------4---------------------------------4-4-4-4-------4-------------|
E|----------------4--4---------4---0~--------------------4-4-4---------------|


Chorus ? 02.04 ? 02.32

G|---------------------------------------------------------------------------|
D|---------------------------------------------------------------------------|
A|-------------------------------------------------4-4-4-4-4-4-4-4-----------|
E|-1-1-1-1-1-1-1-1-0-0-0-0-0-0-0-0-4-4-4-4-4-4-4-4---------------------------| x4


Bridge ? 02.32 ? 03.13

G|---------------------------------------------------------------------------|
D|---------------------------------------------------------------------------|
A|-------------------------------------------------------------4-4-----------|
E|-0-0-0-0-0-0-0-0-0-0-0-0-0-0-0-0-1-1-1-1-1-1-1-1-1-1-1-1-1-1---------------|

G|---------------------------------------------------------------------------|
D|---------------------------------------------------------------------------|
A|---------------------------------4-4-4-4-4-4-4-4-4--3--2--0----------------|
E|-0-0-0-0-0-0-0-0-0-0-0-0-0-0-0-0-------------------------------------------|

G|---------------------------------------------------------------------------|
D|---------------------------------------------------------------------------|
A|---------------------------------------------------------------------------|
E|-1~------------------------------------------------------------------------|

G|---------------------------------------------------------------------------|
D|---------------------------------------------------------------------------|
A|--------------------------------------------------4-4-3-2-2-3--------------|
E|-1~------------------------------------------------------------4-----------|

G|---------------------------------------------------------------------------|
D|---------------------------------------------------------------------------|
A|-----------------4-4-4-4-4-4-4-4-------------------------------------------|
E|-1-1-1-1-1-1-1-1-----------------0-0-0-0-0-0-0-0-0-0-0-0-0-0-0-0-----------|

G|---------------------------------------------------------------------------|
D|---------------------------------------------------------------------------|
A|-----------------4-4-4-4-4-4-4-4-------------------------------------------|
E|-1-1-1-1-1-1-1-1-----------------0-0-0-0-0-0-0-0~--------------------------|


Chorus ? 03.13 ? End.

G|---------------------------------------------------------------------------|
D|---------------------------------------------------------------------------|
A|-------------------------------------------------4-4-4-4-4-4-4-4-----------|
E|-1-1-1-1-1-1-1-1-0-0-0-0-0-0-0-0-4-4-4-4-4-4-4-4---------------------------| x3

G|---------------------------------------------------------------------------|
D|---------------------------------------------------------------------------|
A|-------------------------------------------------4-4-4-4-4-4-4-4-----------|
E|-1-1-1-1-1-1-1-1-0-0-0-0-0-0-0-0-4-4-4-4-4-4-4-4------------------1~-------|

Thank you! ?

| / slide up
| \ slide down
| h hammer-on
| p pull-off
| ~ vibrato
| + harmonic
| x Mute note

Almost there ...

Sign in to get your own page with links to favourite songs and more. You are just one click away...

Login with Facebook Login with Google