Log in

One click and you are in

Login with Facebook Login with Google

Why sign up and log in

Guitar Tabs Explorer
Man Or Astro Man tabs for Tv fission

Guitar tabs

Tabbed by Brian (Ansigod) McCall <bpmccal@hubcap.clemson.edu> 5-19-96

TELEVISION FISSION - by Man...or Astro-Man?
   available on Experiment Zero

*1
                                 pm---------------------------------|
|--------------------------------------------------------------------
|--------------------------------------------------------------------
|--------------------------------------------------------------------
|-14-14-14-14-14-14-14-14-14\\\--------------------------------------
|------------------------------------7-------7-------7-------7-------
|--------------------------------6-6---6-7-7---7-8-8---8-7-7---7-6-6-

  pm----------------------------------------------------------------|
|--------------------------------------------------------------------
|--------------------------------------------------------------------
|--------------------------------------------------------------------
|-----------------------------8-8-8-8-9-9-9-9-10-10-10-10-9-9-9-9-8-8
|-7-------7-------7-------7------------------------------------------
|---6-7-7---7-8-8---8-7-7---7----------------------------------------

  pm-----------------------------|
|--------------------------------------------------------------------
|--------------------------------------------------------------------
|--------------------------------------------------------------------
|-8-8-9-9-9-9-10-10-10-10-9-9-9-9------------------------------------
|--------------------------------------------------------------------
|--------------------------------------------------------------------

*2
                               pm-----------------------------|
|--------------------------------------------------------------------
|--------------------------------------------------------------------
|--------------------------------------------------------------------
|----5---5---5-7hb(7-7-7-7)r-5---------------------------------------
|-7----7---7-----------------------7-------7-------7-------7---------
|------------------------------6-6---6-7-7---7-8-8---8-7-7---7-------

|--------------------------------------------------------------------
|--------------------------------------------------------------------
|--------------------------------------------------------------------
|----5---5---5-7hb(7-7-7-7)r-5-X-X-10--10--10-10-9-9-9-9-9-9-9-9-----
|-7----7---7-------------------X-X-10--10--10-10-9-9-9-9-9-9-9-9-----
|------------------------------X-X--8---8---8--8-7-7-7-7-7-7-7-7-----

|--------------------------------------------------------------------
|--------------------------------------------------------------------
|-----12----12----12-14hb(14-14-14-14)r-12-X-X-15--15--15-15-14-14-14
|-14-----14----14--------------------------X-X-15--15--15-15-14-14-14
|------------------------------------------X-X-13--13--13-13-12-12-12
|--------------------------------------------------------------------

|--------------------------------------------------------------------
|--------------------------------------------------------------------
|-14-15-14------12----12---------------------------------------------
|-14-15-14--14-----14----14-12--------------12----12-14-14-14-14-14--
|-12-13-12---------------------14--14-14-14----14--------------------
|--------------------------------------------------------------------

|--------------------------------------------------------------------
|--------------------------------------------------------------------
|--------------------------------------------------------------------
|-14-14-14-14-14-14-14-----------------------------------------------
|--------------------------------------------------------------------
|----------------------0-0-0-0-0-0-0-0-0-0-0-0-0-0-0-0-0-0-0-0-0-----

*3

|--------------------------------------------------------------------
|--------------------------------------------------------------------
|-----------------------------------X-X-X-X-X-X-X-X------------------
|-----------------------------------X-X-X-X-X-X-X-X------------------
|-----------------------------------X-X-X-X-X-X-X-X------------------
|-3-3-3-3-3-3-3-3/6-6-6-6-5-5-6-6-0-X-X-X-X-X-X-X-X-0-3-3-3-3-3-3-3-3

|--------------------------------------------------------------------
|--------------------------------------------------------------------
|--------------------X-X-X-X-X-X-X-X---------------------------------
|--------------------X-X-X-X-X-X-X-X---------------------------------
|--------------------X-X-X-X-X-X-X-X---------------------------------
|-/8-8-8-8-6-6-8-8-0-X-X-X-X-X-X-X-X-0-3-3-3-3-3-3-3-3-2-2-2-2-3-3-3-

|--------------------------------------------------------------------
|--------------------------------------------------------------------
|---------X-X-X-X-X-X-X-X--------------------------------------------
|---------X-X-X-X-X-X-X-X--------------------------------------------
|---------X-X-X-X-X-X-X-X--------------------------------------------
|-3-2-2-0-X-X-X-X-X-X-X-X-0-/8-8-8-8-8-8-8-8-10-10-10-10-8-8-10-10-0-

Almost there ...

Sign in to get your own page with links to favourite songs and more. You are just one click away...

Login with Facebook Login with Google