Log in

One click and you are in

Login with Facebook Login with Google

Why sign up and log in

Guitar Tabs Explorer
Man Or Astro Man tabs for Test driver

Guitar tabs

Tabbed by Brian (Ansigod) McCall <bpmccal@hubcap.clemson.edu> 5-19-96

TEST DRIVER - by Man...or Astro-Man? from the album Experiment Zero
   Written by The Bunnies

*1

|-------------------------------------------------------------------
|-------------------------------------------------------------------
|-8-------8XX2--------/8--------2-----------------------------------
|-8-------8XX2--------/8--------2-----------------------------------
|-6-------6XX0--------/6--------0-----------------------------------
|-------------------------------------------------------------------

*2

|-------------------------------------------------------------------
|-------------------------------------------------------------------
|-------------------------------------------------------------------
|-------------------------------------------------------------------
|-----------------------3-3-0--------------------------3-3-0--------
|-0-3-0-5--0-3-5--0-3-5-------3-5--0-3-5--0-3-5--0-3-5-------3-5----

|-------------------------------------------------------------------
|-------------------------------------------------------------------
|-------------------------------------------------------------------
|------------------------------------2--------------------------3-3-
|---------------------3-3-0------0-3------------5--0-3-5--0-3-5-----
|-0-3-5--0-3-5--0-3-5-------3-5--------0--0-------------------------
                                           ^dive to A chord diagramD MajorD and release

|-------------------------------------------------------------------
|-------------------------------------------------------------------
|-------------------------------------------------------------------
|-0--------------------------3-3-0----------------------------------
|---3-5--0-3-5--0-3-5--0-3-5-------3-5--3------------------3-3-0----
|------------------------------------------5--0-3-5--0-3-5-------3-5

|-------------------------------------------------------------------
|-------------------------------------------------------------------
|-------------------------------------------------------------------
|-----2------------------7-7-7-7-5-5-5-5----------------------------
|-0-3------------7-7-7-7-----------------7-7-7-7-3/5--5-3-5-3-0-----
|-------0--0----------------------------------------------------3---
              ^dive to A chord diagramD MajorD and release

|-------------------------------------------------------------------
|-------------------------------------------------------------------
|-------------------------------------------------------------------
|-------------------------------------------------------------------
|-0-0-0-0-0-0-0-0-0-------------------------------------------------
|-------------------0-0-0-0-0-0-0-0-0-------------------------------
                                     ^repeat

Solo is based mainly in the A chord diagramA augmentedA pentatonic scale below with the shown
accidentals:

|-----------------------------5-8-----------------------------------
|-------------------------5-8---------------------------------------
|---------------------5-7-------------------------------------------
|-----------------5-7-----------------------------------------------
|-----------5-6-7---------------------------------------------------
|-(0-3)-5-8---------------------------------------------------------

Here's some excerpts from the solo:
                                            pm-----------|
|-----------------------------------------|-------------------------
|-----------------------------------------|-------------------------
|-----------------5-7hb(7-7-7-7)r-7-5-----|-------------5-7hb(7-7-7-
|-7----5-7----5-7---------------------7-5-|---------5-7-------------
|----7------7-----------------------------|-----5-7-----------------
|-----------------------------------------|-5-8---------------------

|------------|------------------------------------------------------
|------------|------------------------------------------------------
|-7)-7-5-----|------------------------------------------------------
|--------7-5-|-----------------7\-----------------------------------
|------------|-----------------7\-----------------------------------
|------------|-0-0-0-0-0-0-0-0-5\-----------------------------------
               ^the end part

Back to *1

Repeat *2

Almost there ...

Sign in to get your own page with links to favourite songs and more. You are just one click away...

Login with Facebook Login with Google