Log in

One click and you are in

Login with Facebook Login with Google

Why sign up and log in

Guitar Tabs Explorer
Man Or Astro Man tabs for Sferic waves

Guitar tabs

Tabbed by Brian McCall <bpmccal@hubcap.clemson.edu>

SFERIC WAVES - by Man...or Astro-Man?
   from Project Infinity

D-tuning

*1 (palm muting throughout)

|---------------------------------------------------------------
|---------------------------------------------------------------
|-----6-6-----6-6-----9-9-----9-9-------------------------------
|-----6-6-----6-6-----9-9-----9-9-----7-----6-----5-----6-----7-
|-8-8-----8-8-----7-7-----7-7-----5-5---5-5---5-5---5-5---5-5---
|---------------------------------------------------------------
                                  ^--------play twice----------^

Repeat *1 (gradualy let off palm muting at the end)

*2

|-----------------------------------------------------------------
|-----------------------------------------------------------------
|-----------------------------------------------------------------
|-/5-5-5-0-/5-5-5-0-/5-5-5-0-/8--8-8-----7-----6-----5-----6-----7
|-/5-5-5-0-/5-5-5-0-/5-5-5-0-/8--8-8-5-5---5-5---5-5---5-5---5-5--
|-/5-5-5-0-/5-5-5-0-/5-5-5-0-/8--8-8------------------------------

|-----------------------------------------------------------------
|-----------------------------------------------------------------
|-----------------------------------------------------------------
|-/5-5-5-0-/5-5-5-0-/5-5-5-0-/3--3-3-----7-----6-----5-----6-----7
|-/5-5-5-0-/5-5-5-0-/5-5-5-0-/3--3-3-5-5---5-5---5-5---5-5---5-5--
|-/5-5-5-0-/5-5-5-0-/5-5-5-0-/3--3-3------------------------------

|-----------------------------------------------------------------
|-----------------------------------------------------------------
|-----------------------------------------------------------------
|-0-0-0-0-0-0-0-0-------------------------------------------------
|-0-0-0-0-0-0-0-0-------------------------------------------------
|-0-0-0-0-0-0-0-0...----------------------------------------------

*3

|-----------------------------------------------------------------
|-----------------------------------------------------------------
|-----------------------------------------------------------------
|-3-3-0-0------3--0---------66-6-5-5-------6--5--------3--0-------
|---------0--0-------0--0-0----------5-5-5------5--5-5-------0--0-
|-----------------------------------------------------------------

|-----------------------------------------------------------------
|--------------------------------------66-6-6-----------6---------
|---------------------------------------------7-7----------7------
|---3--0------------------------------------------7-7-7-------7-7-7
|-0-------0--0-0-00-3-00-3-00-55555555----------------------------
|-----------------------------------------------------------------

|-----------------------------------------------------------------
|-99-9-9-8-8-------/9--8----/14-0-0-6-6-----------6---------------
|------------7-7-7--------7-/14-0-0-----7-7----------7------------
|-------------------------------------------7-7-7-------7-7-7-00-7
|-----------------------------------------------------------------
|-----------------------------------------------------------------

|-----------------------------------------------------------------
|-----------------------------------------------------------------
|----------------------7-7-7-7-7-7-7-7-7-7-7-7-7------------------
|-00-7-00-7-0-8-7-5...-7-7-7-7-7-7-7-7-7-7-7-7-7------------------
|----------------------5-5-5-5-5-5-5-5-5-5-5-5-5.....-------------
|-----------------------------------------------------------------
                   ^don't know this part

Repeat *1

*4

|---------------------------------------------------------|--------
|---------------------------------------------------------|--------
|-7-7-7---7-7-7---7-7-7-----------------------------------|--------
|-7-7-7-0-7-7-7-0-7-7-7-3--3-3-5--5-5-5-5-5-5-5-6-5-6-5-3-|-0------
|-5-5-5-0-5-5-5-0-5-5-5-3--3-3-5--5-5-5-5-5-5-5-6-5-6-5-3-|-0------
|-------0-------0-------3--3-3-5--5-5-5-5-5-5-5-6-5-6-5-3-|-0------
                                                        ^repeat

That's all for now...more to come later.

Almost there ...

Sign in to get your own page with links to favourite songs and more. You are just one click away...

Login with Facebook Login with Google