Log in

One click and you are in

Login with Facebook Login with Google

Why sign up and log in

Guitar Tabs Explorer
Man Or Astro Man tabs for Put your finger in the socket

Put Your Finger In The Socket tab by Man Or Astro Man

Man Or Astro Man tabs for Put your finger in the socket

Guitar tabs with lyrics

Tabbed by Brian (Ansigod) McCall <bpmccal@hubcap.clemson.edu>

PUT YOUR FINGER IN THE SOCKET - by Man...ot Astro-Man? from their
   album Project Infinity

I've bever tabed guitars with tremolos before so this is my first.
I'll use the tilda character ~ at the top of a tab bar to denote
whammy bar tremolo/vibrato.  ^ will denote a "dive" type bar thing
and can also be followed by ~.

*1

           ~~~          ~~~         ^ ~~                  ~~~
|-------0------------0------------3---------------------0--------------
|-------0------------0------------3-----X---------------0--------------
|-3-3---1------3-3---1------5-5---4-----X-4-4-4-4-3-3---1--------------
|-3-3-X-2------3-3-X-2------5-5-X-5-----X-5-5-5-5-3-3-X-2-----2-2-2-2-2
|-1-1-X-2------1-1-X-2------3-3-X-5-----X-5-5-5-5-1-1-X-2-----2-2-2-2-2
|-----0-0----------0-0----------0-3-----X-3-3-3-3-----0-0-----0-0-0-0-0

                           V
|-0-0----------------------0----------------------0-0-----------------
|-0-0--------------------X-0----------------------0-0-----------------
|-1-1-----1-0~~~---------X-1--1-XXX-X-X-X-X-X-X-X-1-1-----1-0~~~------
|-2-2------------0-2-0-2-X-2--2-XXX-X-X-X-X-X-X-X-2-2------------0-2-0
|-2-2-2-2----------------X----2-XXX-X-X-X-X-X-X-X-2-2-2-2-------------
|-0-0--------------------X----0-XXX-X-X-X-X-X-X-X-0-0-----------------

      V
|-----0--------------------------------------0-0--------------
|---X-0--------------------------------------1-1-----1-0~~~---
|---X-1--------------------------------------2-2--------------
|-2-X-2----2-2-2-2-3-3-3-3-2-2-2-2-3-3-3-3---2-2-2-2----------
|---X----------------------------------------0-0--------------
|---X----0--------------------------------(0)-----------------

            V
|-----------0--------------------------------------0-0--------
|---------X-1--------------------------------------0-0--------
|-0-2-0-2-X-2--------------------------------------1-1--------
|---------X-2--------------------------------------2-2-----2-1~~~
|---------X-0--X-X-7-7-7-7-6-6-6-6-5-5-5-5-3-3-3-3-2-2-2-2----
|--------------------------------------------------0-0--------

            V
|-----------0-----0-0-0---------------------------------------
|-----------0-----0-0-0---------------------------------------
|-----------1-----1-1-1---------------------------------------
|-----------2-XXX-2-2-2-----2---------------------------------
|-----------2-XXX-2-2-2-----2---------------------------------
|-0-2-0-3-0---XXX-0-0-0-0-0-0-0-------------------------------

*2

|-------------------------------------------------------------
|-------------------------------------------------------------
|---------7-7-5-5-4-44-4-4-4-4---------5-5-4-4-2-22-2-2-------
|-----6-6--------------------------4-4------------------------
|-7-7--------------------------5-5----------------------------
|-------------------------------------------------------------

Repeat *1 but exclude the A chord diagramC/GC/G and third Bb/E chord parts.

*3 Interlude

|-------------------------------------------------------------
|-------------------------------------------------------------
|-------------------------------------------------------------
|-------------------------------------------------------------
|-3--3--5--5-5-5-3--3--5--3-5-3-2--2--------------------------
|-------------------------------------0-----0--0-0-0-0-0...---

|-------------------------------------------------------------
|-------------------------------------------------------------
|-------------------------------------------------------------
|-------------------------------------------------------------
|-3--3--5--5-5-5-3--3--5--3-5-3-2--2------------7-----7-------
|-------------------------------------0-----0-0---0-0---0-0-0-

|---------------------------------------/7-7-7-7-7------------
|---------------------------------------/8-8-8-8-8------------
|-------------------------------------------------------------
|-------------------------------------------------------------
|-------2--2-2-2-------2-3-2----------------------------------
|-1--1-----------1--1---------0-----0-0-----------------------

|-------------------------------------------------------------
|-------------------------------------------------------------
|-------------------------------------------------------------
|-------------------------------------------------------------
|-------2--2-2-2-------2-3-2----------------------------------
|-1--1-----------1--1---------0--...harmonics, slides, noise..


Note: I didn't tab each note of this phrase....because there's
         lots of them!

Repeat certain parts of *1...you get the idea.

Please send comments, corrections, flames, etc...to the top address.

Almost there ...

Sign in to get your own page with links to favourite songs and more. You are just one click away...

Login with Facebook Login with Google