Log in

One click and you are in

Login with Facebook Login with Google

Why sign up and log in

Guitar Tabs Explorer
Man Or Astro Man tabs for Polaris

Guitar tabs

Tabbed by Brian (Ansigod) McCall <bpmccal@hubcap.clemson.edu> 4/15/96

POLARIS - by Man...or Astro-man .  Availalable on the Your Weight on
   the Moon EP and Postphonic Explosion 5".

*1

|--------------------------------------------------------------------
|--------------------------------------------------------------------
|--------------------------------------------------------------------
|----4--0-----0-------------------4--0-----0-4---2-0-----------------
|-2--------------4--5----------2----------------------4-2------------
|----------------------2-3-------------------------------------------

|----------------------------------------------------------------------
|----------------------------------------------------------------------
|----------------------------------------------------------------------
|----------------------2--222-2-0--0-0----------------------2--222-2-0..
|-2--5-4----5-4-2--5-4-----------------2--5-4----5-4-2--5-4------------
|--------2------------------------------------2------------------------

*2

|--------------------------------------------------------------------
|--------------------------------------------------------------------
|--------------------------------------------------------------------
|------4----4---0-0-4-4-0-0-4-4--------------------------------------
|-2--2----2---2-------------------------4----4---0-0-4-4-0-0-4-4-----
|-------------------------------22-2--2----2---2---------------------
                                                                ^repeat
*3

|-----------/5-5-5-5-5-5-5-5------------/6-6-6-6-6-6-6-6-------------
|-----------/5-5-5-5-5-5-5-5------------/6-6-6-6-6-6-6-6-------------
|-4-4-4-----------------------4-4-4-----------------------4-4-4------
|-------4---------------------------4---------------------------4----
|--------------------------------------------------------------------
|--------------------------------------------------------------------

|-/7-7-7-7-7-7-7-----------------------------------------------------
|-/7-7-7-7-7-7-7-7777-7-7-7-6666-6-6-6-5555-5-5-5-3333-3-3-3--2-3-2--
|--------------------------------------------------------------------
|--------------------------------------------------------------------
|--------------------------------------------------------------------
|--------------------------------------------------------------------
                                                                   ^repeat
*4

|--------------------------------------------------------------------
|--------------------------------------------------------------------
|-4--4-----------7--7-----------9--9---------------------------------
|-4--4--4--4-4-4-7--7--7--7-7-7-9--9--9--9-9-9-----------------------
|-2--2--4--4-4-4-5--5--7--7-7-7-7--7--9--9-9-9-----------------------
|-------2--2-2-2-------5--5-5-5-------7--7-7-7-2h3-3-2h3-3-2h3-------

|--------------------------------------------------------------------
|--------------------------------------------------------------------
|-4--4-----------7--7-----------9--9---------------------------------
|-4--4--4--4-4-4-7--7--7--7-7-7-9--9--9--9-9-9-----------------------
|-2--2--4--4-4-4-5--5--7--7-7-7-7--7--9--9-9-9-----------------------
|-------2--2-2-2-------5--5-5-5-------7--7-7-7-2h3-3-2h3-3-2h3-2h3-3-


|--------------------------------------------------------------------
|--------------------------------------------------------------------
|--------------------------------------------------------------------
|--------------------------------------------------------------------
|--------------------------------------------------------------------
|-2h3-3-2h3-5p4-4-5p4-4-5p4-6h7-7-6h7-7-6h7-10p9-9-10p9-9-10p9-2h3-3-

|--------------------------------------------------------------------
|--------------------------------------------------------------------
|--------------------------------------------------------------------
|--------------------------------------------------------------------
|--------------------------------------------------------------------
|-2h3-3-2h3-5p4-4-5p4-4-5p4-6h7-7-6h7-7-6h7-10p9-9-10p9-9-10p9-99999-

Repeat *1-*4 again.  End song on A chord diagramBB (on the A chord diagramA augmentedA string).

Almost there ...

Sign in to get your own page with links to favourite songs and more. You are just one click away...

Login with Facebook Login with Google