Log in

One click and you are in

Login with Facebook Login with Google

Why sign up and log in

Guitar Tabs Explorer
Man Or Astro Man tabs for Planet collision

Guitar tabs

Tabbed by Brian (Ansigod) McCall <bpmccal@hubcap.clemson.edu> 4/9/96

PLANET COLLISION - by Man...or Astro-man? as performed at the
   Mercury Theatre in Knoxville, TN on 2/9/96.
                   Available on the new record Experiment Zero.
Intro (played twice)

|-------------------------------------------------------------------
|-------------------------------------------------------------------
|-2------------------------------2----------------------------------
|-2--2-2-1-1-0-0-------------3-3-2--2-2-1-1-0-0-------------3-3-----
|----------------3-3-2-2-3-3--------------------3-3-2-2-3-3---------
|-------------------------------------------------------------------

|-------------------------------------------------------------------
|-------------------------------------------------------------------
|-2--------------------------0-0-2--------------2h3-3-3-2h3-3-3-----
|-2--2-2-1-1-0-0---------3-3-----2--2-2-1-1-2-2---------------------
|----------------3-3-2-2--------------------------------------------
|-------------------------------------------------------------------

*1

|-------------------------------------------------------------
|-------------------------------------------------------------
|-2--2-2-2-2-2-2-2--2-2-2-2-2-2-2--2-2-2-2-2-2-2--2-2-2-2-2-2-
|-2--2-2-2-2-2-2-1--1-1-1-1-1-1-0--0-0-0-0-0-0-1--1-1-1-1-1-1-
|-------------------------------------------------------------
|-------------------------------------------------------------

|-------------------------------------------------------------
|-------------------------------------------------------------
|-2--2-2-2-2-2-2-2--2-2-2-2-2-2-2--2-2-2-2-2-2-2--2-2-2-2-2-2-
|-2--2-2-2-2-2-2-1--1-1-1-1-1-1-0--0-0-0-0-0-0-1--1-1-1-1-1-1-
|-------------------------------------------------------------
|-------------------------------------------------------------

|-------------------------------------------------------------------
|-------------------------------------------------------------------
|-2-2-2-2-2-2-2-2-2-2-2-2-2-2-2-2-5-5-5-5-5-5-5-5-5-5-5-5-5-5-5-5---
|-2-2-2-2-2-2-2-2-1-1-1-1-1-1-1-1-5-5-5-5-5-5-5-5-5-5-5-5-5-5-5-5---
|---------------------------------3-3-3-3-3-3-3-3-3-3-3-3-3-3-3-3---
|-------------------------------------------------------------------

|-------------------------------------------------------------------
|-------------------------------------------------------------------
|-2-2-2-2-2-2-2-2-2-2-2-2-2-2-2-2-5-5-5-5-5-5-5-5-5-5-5-5-5-5-5-5---
|-2-2-2-2-2-2-2-2-1-1-1-1-1-1-1-1-5-5-5-5-5-5-5-5-5-5-5-5-5-5-5-5---
|---------------------------------3-3-3-3-3-3-3-3-3-3-3-3-3-3-3-3---
|-------------------------------------------------------------------

*2

|---------------------------------------------------------------------
|---------------------------------------------------------------------
|-2--2---7--7-5-7-X-10-10--9--9-7-9--2--2---7--7-5-7-X-8--8---7--7-5-7
|-2--2---7--7-5-7-X-10-10--9--9-7-9--2--2---7--7-5-7-X-8--8---7--7-5-7
|-0--0---5--5-3-5-X-8--8---7--7-5-7--0--0---5--5-3-5-X-6--6---5--5-3-5
|-----------------X----------------------------------X----------------

|---------------------------------------------------------------------
|---------------------------------------------------------------------
|-2--2---7--7-5-7-X-10-10--9--9-7-9--2--2---7--7-5-7-X-8--8---7--7-5-7
|-2--2---7--7-5-7-X-10-10--9--9-7-9--2--2---7--7-5-7-X-8--8---7--7-5-7
|-0--0---5--5-3-5-X-8--8---7--7-5-7--0--0---5--5-3-5-X-6--6---5--5-3-5
|-----------------X----------------------------------X----------------

repeat *1

|-------------------------------------------------------------------
|-------------------------------------------------------------------
|-2h3-3-3-2h3-3-3-2h3-3-3-2h3-3-3-2h3-3-3-2h3-3-3-2h3-3-3-2h3-3-3---
|-------------------------------------------------------------------
|-------------------------------------------------------------------
|-------------------------------------------------------------------

repeat *2

End on A chord diagramA augmentedA |X0222X|

Almost there ...

Sign in to get your own page with links to favourite songs and more. You are just one click away...

Login with Facebook Login with Google