Log in

One click and you are in

Login with Facebook Login with Google

Why sign up and log in

Guitar Tabs Explorer
Man Or Astro Man tabs for Of sex and demise

Guitar tabs

OF SEX AND DEMISE by Man or Astroman?
>From Destroy all Astromen
tabbed by Andy Everett

I didn't include the strumming pattern for the power chords,
so just listen to the song and figure it out.

(slide from 12th fret down on the second string)
Part 1
------------------------------------------------------------------------|
------------------------------------------------------------------------|
------------2-----3--2--------------------------------------------------|
------------------------------3/5--3-----2-----2-----2--3--3--3--2------|
5--5--3--5-----3--------3--1----------0-----0-----0---------------------|
------------------------------------------------------------------------|
               Part 2
------|-----|------------------------------|--------5--|
------|-----|------------------------------|--------5--|
------|-----|--7--5--3--2-----7--5--3--10--|--------6--|   Guitar Solo
2--2--|--5--|--7--5--3--2-----7--5--3--10--|--5--8--7--|
------|--5--|--5--3--1--0-----5--3--1--8---|--5--8--7--|
------|--3--|------------------------------|--3--6--5--|


Ending
|--------5--6--9---10--|
|--------5--6--9---10--|
|--------5--6--9---10--|
|--5--8--7--8--11--12--|
|--5--8--7--8--11--12--|
|--3--6--5--6--9---10--|

Here's the order:

Part 1 - 4x            E-mail me if anyone wants the solo
Part 2 - 1.5x

Solo                   deverett@nmc.edu
Part 1 - 4x

Almost there ...

Sign in to get your own page with links to favourite songs and more. You are just one click away...

Login with Facebook Login with Google