Log in

One click and you are in

Login with Facebook Login with Google

Why sign up and log in

Guitar Tabs Explorer
Man Or Astro Man tabs for Nitrous burn out

Guitar tabs

Tabbed by Brian (Ansigod) McCall <bpmccal@hubcap.clemson.edu>

NITROUS BURN OUT - by Man...or Astro-man?
   available on Is It...Man...or Astro-Man?
Intro
                ,             ,             ,
|-----------------------------------------------------------------
|-----------------------------------------------------------------
|-----------------------------------------------------------------
|--4--4-4--4-4-4-4--4-4--4-4-4-4--4-4--4-4-4-4--4-4--4-4-4--------
|-----------------------------------------------------------------
|-----------------------------------------------------------------
                ^repeat
*1

|----------------------------------------------------|--------------
|----------------------------------------------------|--------------
|----------------------------------------------------|--------------
|-4--4-4--4-4-4-----------4-4--4-4--4-4-4-----------4|4--4-4--4-4-4-
|---------------------5-4-----------------------5-4--|--------------
|---------------3-3-3---------------------3-3-3------|--------------

|----------------------------------
|----------------------------------
|----------------------------------
|-------5-4------------------------
|-3-3-3-----2-2-2-3-2--2-2-2-2-3-2-
                                  ^repeat
*2

|------------------------------
|------------------------------
|-4-------/12121212121212121111
|-4-------/12121212121212121111
|-2-------/10101010101010109-9-
|------------------------------

|----------------------------------------------------------------------
|----------------------------------------------------------------------
|-11111111111112121212111111117-7-7-7-4-------/121212121212121214141414
|-11111111111112121212111111117-7-7-7-4-------/121212121212121214141414
|-9-9-9-9-9-9-101010109-9-9-9-5-5-5-5-2-------/101010101010101012121212...
|----------------------------------------------------------------------
                                                                   repeat^
Repeat *1

*3

|-----------------------------------------------------------------
|-----------------------------------------------------------------
|-4-4---(4)-----7-7-7-X-4-4---(4)---------------------------------
|-4-4---(4)-5-5-7-7-7-X-4-4---(4)-4-4-4-5-4-----------------------
|-2-2---(2)-5-5-5-5-5-X-2-2---(2)-4-4-4-5-4-----------------------
|-----------3-3-------------------2-2-2-3-2-(0)-------------------
   ^rest                 ^rest                 ^repeat

*4

|-----------------------------------------------------------------
|-----------------------------------------------------------------
|--------------------------4--------------------------------------
|--------------------------4--------------------------------------
|----------------0-0-0-5-4-2--------------------------------------
|-0-0-0-2-3-2-----------------------------------------------------
                            ^repeat

*5

|-----------------------------------------------------------------
|-----------------------------------------------------------------
|-----------------------------------------------------------------
|-4-5-4-0--2-2-----4-5-4-0----5-5---------------------------------
|--------------------------3--------------------------------------
|-----------------------------------------------------------------
                                 ^repeat with a few variations

Transition

|-----------------------------------------------------------------
|-----------------------------------------------------------------
|-----------------------------------------------------------------
|-2-2-2-2-2-2-2-2-3-3-3-3-3-3-3-3-4-4-4-4-4-4-4-4-5-5-5-5-5-5-5-5-
|-2-2-2-2-2-2-2-2-3-3-3-3-3-3-3-3-4-4-4-4-4-4-4-4-5-5-5-5-5-5-5-5-
|-0-0-0-0-0-0-0-0-1-1-1-1-1-1-1-1-2-2-2-2-2-2-2-2-3-3-3-3-3-3-3-3-

|-----------------------------------------------------------------
|-----------------------------------------------------------------
|-----------------------------------------------------------------
|-6-6-6-6-6-6-6-6-7-7-7-7-7-7-7-7-8-8-8-8-8-8-8-8-9-9-9-9-9-9-9-9-
|-6-6-6-6-6-6-6-6-7-7-7-7-7-7-7-7-8-8-8-8-8-8-8-8-9-9-9-9-9-9-9-9-
|-4-4-4-4-4-4-4-4-5-5-5-5-5-5-5-5-6-6-6-6-6-6-6-6-7-7-7-7-7-7-7-7-

Repeat *1

Almost there ...

Sign in to get your own page with links to favourite songs and more. You are just one click away...

Login with Facebook Login with Google