Log in

One click and you are in

Login with Facebook Login with Google

Why sign up and log in

Guitar Tabs Explorer
Man Or Astro Man tabs for Mermaid love

Guitar tabs

Tabbed by Brian (Ansigod) McCall <bpmccal@hubcap.clemson.edu> 5-19-96

MERMAID LOVE - by Man...or Astro-Man?
   available on the albums "Is It..." and "Intraveinous
               Television Continuum"

*1

|-------------------------------------------------------------------
|-------------------------------------------------------------------
|---4---6hbr---7-6---6-4------4---6hbr----1-------------------------
|-6---6------6-----6------6-6---6------1----1-1-2/4-4/6-------------
|-------------------------------------------------------------------
|-------------------------------------------------------------------
                                                       ^repeat

*2

|---------------------|---------------------|----------------------------
|---------------------|---------------------|----------------------------
|-----------6----4--3-|--8----9-------------|-13--8---4------------------
|-6----4----6----4--3-|--8----9-------------|-13--8---4------------------
|-6----4----4----2--1-|--6----7-------------|-11--6---2------------------
|-4----2--------------|------------0-15\\\\-|-----------4--2-4--2-4-2--4...

*3

|-------------------------------------------------------------------
|-------------------------------------------------------------------
|-------------------------------6---7---6---------------------------
|-6---------4---------6---------6---7---6---------------------------
|-6---------4---------6---------4---5---4---------------------------
|-4---------2---------4---------------------------------------------
                                         ^repeat
Repeat *1

Repeat *3


Solo

Repeat *1

Repeat *3

Repeat *1

Repeat *2

Almost there ...

Sign in to get your own page with links to favourite songs and more. You are just one click away...

Login with Facebook Login with Google