Log in

One click and you are in

Login with Facebook Login with Google

Why sign up and log in

Guitar Tabs Explorer
Man Or Astro Man tabs for Evil plans of planet spectra

Evil Plans Of Planet Spectra tab by Man Or Astro Man

Man Or Astro Man tabs for Evil plans of planet spectra

Guitar tabs

Tabbed by Brian (Ansigod) McCall <bpmccal@hubcap.clemson.edu> 6-23-96

EVIL PLANS OF PLANET SPECTRA - by Man...or Astro-man? from the
   album Experiment Zero

Drop-D Tuning

*1

|--------------------------------------------------------------------
|--------------------------------------------------------------------
|-6/7-7/8-8\7-7\6-6/7-7/8-8\7-7\6------------------------------------
|-6/7-7/8-8\7-7\6-6/7-7/8-8\7-7\6------------------------------------
|-4/5-5/6-6\5-5\4-4/5-5/6-6\5-5\4------------------------------------
|--------------------------------------------------------------------
                                 ^repeat
*2

|--------------------------------------------------------------------
|--------------------------------------------------------------------
|--------------------------------------------------------------------
|--------------------------------------------------------------------
|-----------------1-1-1-0-0-0-----------------------1-1-1-0-0-0------
|-0-0-0-0-0-0-0-0-------------3-3-0-0-0-0-0-0-0-0-0-------------3-3--

|-------------------------------------------------|------------------
|-------------------------------------------------|------------------
|-------------------------------------------------|------------------
|-------------------------------------------------|-8-8-8-8-8-8-8-8--
|-----------------3-3-1-3-3-1-3-3-0-0-0-0-0-0-0-0-|-8-8-8-8-8-8-8-8--
|-1-1-1-1-1-1-1-1---------------------------------|-8-8-8-8-8-8-8-8--

*3

|--------------------------------------------------------------------
|--------------------------------------------------------------------
|--------------------------------------------------------------------
|--------------------------------------------------------------------
|-----------------6-6-6-6-5-5-5-5-6-6-6-6-----------------3-3-3-1-1-1
|-5-5-5-5-5-5-5-5-------------------------3-3-3-3-3-3-3-3------------

|--------------------------------------------------------------------
|--------------------------------------------------------------------
|--------------------------------------------------------------------
|--------------------------------------------------------------------
|-1-3-3-3-1-------------------1/3-3-3-3-1-1-3-3----------------------
|-----------1-1-1-1-1-1-1-1-1-------------------0--0--12\-0--0--12\--

|--------------------------------------------------------------------
|--------------------------------------------------------------------
|--------------------------------------------------------------------
|--------------------------------------------------------------------
|-------------------------------------6/8-8-8-8-6-6-5-5--------------
|-0--0--12\-0--0--12\-5-5-5-5-5-5-5-5-------------------3-3-3-3-3-3-3-3

|--------------------------------------------------------------------
|--------------------------------------------------------------------
|--------------------------------------------------------------------
|--------------------------------------------------------------------
|-3--5-5-6-6-5-5-----------------1/3-3-3-3-1-1-3-3-------------------
|----------------1-1-1-1-1-1-1-1-------------------0--0--12\-0--0-12\

|--------------------------------------------------------------------
|--------------------------------------------------------------------
|--------------------------------------------------------------------
|--------------------------------------------------------------------
|--------------------------------------------------------------------
|-0--0--12\-0--0--12\------------------------------------------------

Repeat *1

|--------------------------------------------------------------------
|--------------------------------------------------------------------
|--------------------------------------------------------------------
|-8-8-8-8---8\---8-8-8-8---8\--5--5-5--5-5-5--8-8-8-8---8\---8-8-8-8-
|-8-8-8-8---8\---8-8-8-8---8\--5--5-5--5-5-5--8-8-8-8---8\---8-8-8-8-
|-8-8-8-8---8\---8-8-8-8---8\--5--5-5--5-5-5--8-8-8-8---8\---8-8-8-8-

|--------------------------------------------------------------------
|--------------------------------------------------------------------
|--------------------------------------------------------------------
|-8\---8-8-8-8---8\--3--3-3--3-3-3--8-8-8-8--10-10-10-10-10-10-10-10-
|-8\---8-8-8-8---8\--3--3-3--3-3-3--8-8-8-8--10-10-10-10-10-10-10-10-
|-8\---8-8-8-8---8\--3--3-3--3-3-3--8-8-8-8--10-10-10-10-10-10-10-10-

|--------------------------------------------------------------------
|--------------------------------------------------------------------
|--------------------------------------------------------------------
|-11-11-11-11-11-11-11-11-12-12-12-12-12-12-12-12--------------------
|-11-11-11-11-11-11-11-11-12-12-12-12-12-12-12-12--------------------
|-11-11-11-11-11-11-11-11-12-12-12-12-12-12-12-12--------------------
                                                 ^repeat
Repeat *1

Almost there ...

Sign in to get your own page with links to favourite songs and more. You are just one click away...

Login with Facebook Login with Google