Log in

One click and you are in

Login with Facebook Login with Google

Why sign up and log in

Guitar Tabs Explorer
Man Or Astro Man tabs for 9 volt

Guitar tabs

Tabbed by Brian (Ansigod) McCall <bpmccal@hubcap.clemson.edu> 6-23-96

9 VOLT - by Man...or Astro-man? from the album Experiment Zero
= ====

*1

A chord diagramA#A# A chord diagramC#C# A chord diagramEb MajorEb

A chord diagramA#A# A chord diagramC#C# A chord diagramEb MajorEb

*2

|-------------------------------------------------------------------
|-------------------------------------------------------------------
|-------------------------------------------------------------------
|-------------------------------------------------------------------
|-------------------------13-13-13-12-12-12-11-11---------8-8-------
|-11-11-11-11-14-11-11-11-------------------------9-9-9-9-----9-9---

|-------------------------------------------------------------------
|-------------------------------------------------------------------
|-------------------------------------------------------------------
|-------------------------------------------------------------------
|-/11-11-11-11-9-9-11-9-------------------------13-13-13-12-12-12-11
|-----------------------11-11-11-11-14-11-11-11---------------------

|-------------------------------------------------------------------
|-------------------------------------------------------------------
|-------------------------------------------------------------------
|-------------------------------------------------------------------
|-11---------8-8----------------------------------------------------
|----9-9-9-9-----9-9-11hb(11-11-11-11-11)r--------------------------

*3

A chord diagramEb MajorEb

A chord diagramEb MajorEb                    A chord diagramF#F#

I know..

             A chord diagramFF

Magnetically  ??

          A chord diagramEb MajorEb

Set..


A chord diagramEb MajorEb                 A chord diagramF#F#

Cause ..


               A chord diagramFF

And ..


              A chord diagramEb MajorEb

from ..

Repeat *1

Repeat *3 to these lyrics:

It's ..
System ..
with ..
Cause ..
and ..
from..

*4

A chord diagramBB                                    A chord diagramEb MajorEb

Burnin'..


A chord diagramBB                                             A chord diagramEb MajorEb

Seen..


A chord diagramBB                         A chord diagramAbAb

Ridden ..


A chord diagramF#F#              A chord diagramFF                    A chord diagramEb MajorEb

Don't ..

Repeat *1

Repeat *4 with these lyrics:

 ?? our..
Seen ..
Let's ..
Don't ..

Repeat *2

Almost there ...

Sign in to get your own page with links to favourite songs and more. You are just one click away...

Login with Facebook Login with Google