Log in

One click and you are in

Login with Facebook Login with Google

Why sign up and log in

Guitar Tabs Explorer
The Mamas And The Papas bass tabs for Dream a little dream of me

Dream A Little Dream Of Me bass tab by The Mamas And The Papas

The Mamas And The Papas bass tabs for Dream a little dream of me

Bass tabs

m/mamas_and_the_papas/Dream_a_little_dream_of_me.btab

TablEdited by Jan Bjorklund  <jani_bjorklund@yahoo.se>
You are welcome to request for tabs!
Fingering and positions as suggested by TablEdit, please use common sense.
TablEdited by Jan Bjorklund

Tuning : E A D G 	Time Signature: 4/4

 |        |        |        |
|----------------------------------------------------------------|
|----------------------------------------------------------------|
|--------------------------3-----------------------------3-------|
|--------------------------------------------------------------2-|

 |        |        |        |
|----------------------------------------------------------------|
|----------------------------------1---------------------------0-|
|----------------------------------------------------------------|
|----------------------------2-----------------------------------|

 |        |        |        |
|----------------------------------------------------------------|
|----------------------------------------------------------------|
|----------------------------------------3-----------------------|
|----------------------------------------------------------------|

 |        |        |        |
|----------------------------------------------------------------|
|----------------------------------------------------------------|
|----3-----2-----------------1-----------------0-----------------|
|----------------------------------------------------------------|

 |        |        |        |
|----------------2-----------------------------------------------|
|----------2-----------------------------------------3-----------|
|----------------------------------------------3-----------------|
|----------------------------------------------------------------|

 |        |        |        |
|----------------------------------------------------------------|
|----------------3-----------------------------------------3-----|
|----------------------3-----------------------------3-----------|
|----------------------------------------------------------------|

 |        |        |        |
|----------------------------------------------------------------|
|----------------------------3-----------------------------3-----|
|----------------------3-----------------------------------------|
|----------------------------------------------------------------|

 |        |        |        |
|----------------------------------------------------------------|
|----------------------------------------------------------------|
|3---------------------------------------------------------------|
|----------------------------3-----4-----------------3-----------|

 |        |        |        |
|----------------------------------------------------------------|
|----------------------------------------2-----------------2-----|
|------3-----------------3---------------------2-----------------|
|------------------3---------------------------------0-----------|

 |        |        |        |
|----------------------------------------------------------------|
|----------------------------------------------------------------|
|2-----------0---------------------------------------------------|
|------0-----------------------------------0---2-----------------|

 |        |        |        |
|----------------------------------------------------------------|
|----------------------------------------------------------------|
|------------------2-----------------2---------------------------|
|------------2-----------------2-----------------------0---------|

 |        |        |        |
|----------------------------------------------------------------|
|------2---------------------------------------------------------|
|2-----------------------0---------------------------------------|
|------------------0-----------------------------------0-----2---|

 |        |        |        |
|----------------------------------------------------------------|
|----------------------------------------------------------------|
|------------------------------2-----------------2---------------|
|------------------------2-----------------2---------------------|

 |        |        |        |
|----------------------------------------------------------------|
|------------------2---------------------------------------------|
|------------2-----------------------0---------------------------|
|--0---------------------------0---------------------------------|

 |        |        |        |
|----------------------------------------------------------------|
|----------------------------------------------------------------|
|------------------------------------------2-----------------2---|
|--0-----2---------------------------2-----------------2---------|

 |        |        |        |
|----------------------------------------------------------------|
|------------------------------2---------------------------------|
|--------------------------2---------------------0---------------|
|--------------0---------------------------0---------------------|

 |        |        |        |
|----------------------------------------------------------------|
|----------------------------------------------------------------|
|--------------0-------------------------------------------------|
|--------------------2---------------------------2-----4---------|

 |        |        |        |
|------------------------0-------------------0-------------------|
|--------------------------------0-----------------0-------------|
|------------------------------------------------------------3---|
|--------------------------------------3---------------3---------|

 |        |        |        |
|----------------------------------------------------------------|
|----------------------------------------------------------------|
|--------------------------3-------------------------------------|
|--------------------------------2---------------------------2---|

 |        |        |        |
|----------------------------------------------------------------|
|--1-----------------------------0-------------------------------|
|----------------------------------------------------------------|
|----------------------------------------------------------------|

 |        |        |        |
|----------------------------------------------------------------|
|----------------------------------------------------------------|
|--------3-----------------------------3-----2-----------------1-|
|----------------------------------------------------------------|




............................................................

Almost there ...

Sign in to get your own page with links to favourite songs and more. You are just one click away...

Login with Facebook Login with Google